MUZBANK



A Most Complete Bank Of Music Information

МУЗЫКАЛЬНО-ИНФОРМАЦИОННЫЙ БАНК

Поиск по сайту







    MMisfits • 1000000 Years Bc (аккорды и текст - chords & lyrics)


    336

    Print

    Видео «1000000 Years Bc (Misfits)»

    Видео клипы к песне подбираются автоматически сайтом youtube. Возможны некоторые несоответствия клипов песне.

    ↑ Спрятать рекламу ↑



    Download


     
    
    
    Misfits - 1,000,000 Years Bc
    Submitted By: Whisper
    EMail: xxxxhimxxxx@aol.com
    
    Tuning: Standard (E A D G B E)
    
    Here is a fun song to play!
    
    
    Intro 
    E|---------|---||
    B|---------|---||
    G|---------|---||
    D|-7-------|-7-||
    A|-5-7-(x4)|-5-||
    E|---5-----|---||
    
    Verse
    E|-----------||
    B|-----------||
    G|-----------||
    D|-7---------||
    A|-5-7-9-5-7-||
    E|---5-7-3-5-||
    
    Pre-Chorus
    E|---------|---------||
    B|---------|---------||
    G|---------|---------||
    D|-7-------|---------||
    A|-5-9-(x2)|-5-7-(x2)||
    E|---7-----|-3-5-----||
    
    Chorus
    E|---------||
    B|---------||
    G|---------||
    D|-7-------||
    A|-5-9-5-7-||
    E|---7-3-5-||
    
    Break-Off    |Ending
    E|-----------|---------||
    B|-----------|---------||
    G|-----------|---------||
    D|-7-6-------|---7---7-||
    A|-5-4-9-7-5-|-7-5-7-5-||
    E|-----7-5-3-|-5---5---||
    
    
    Drumsticks...
    Intro
    Verse x2
    Pre-Chorus
    Chorus
    Verse x2
    Pre-Chorus
    Chorus
    Break-Off w/Ending
    Chorus x2
    Break-Off
     

    Тональность:

    Нет текста!



    Назад
    Рекомендуем посмотреть другие песни исполнителя «Misfits»:

    • Комментарии Facebook ()
    • Комментарии ВКонтакте



    Добавить в Избранное Браузера
    Сохранить здесь Очистить


    x

    0


    +
    -

    +
    -

    -

    Авторизация





    Зарегистрироваться

    M

    Дата и время

    • 13:23:21
       

    Социальные ссылки


    Наши приложения

    • Muzbank App Play Market
    • Muzbank Amazon App