MUZBANK



A MOST COMPLETE BANK OF MUSIC INFORMATION

МУЗЫКАЛЬНО-ИНФОРМАЦИОННЫЙ БАНК







    MMisfits • Astro Zombies (аккорды и текст - chords & lyrics)


    341

    Print

    Видео «Astro Zombies (Misfits)»

    Видео клипы к песне подбираются автоматически сайтом youtube. Возможны некоторые несоответствия клипов песне.

    ↑ Спрятать рекламу ↑





     
    
    
    intro
    ----------------------------------------------
    ----------------------------------------------
    ----------------------------------------------
    11-11-10-10-10-10-8-8-6-6-6-6-4-4-4-4-6-6-6-6- X2
    11-11-10-10-10-10-8-8-6-6-6-6-4-4-4-4-6-6-6-6-
    9--9--8--8--8--8--6-6-4-4-4-4-2-2-2-2-4-4-4-4-
    
    verse
    ----------------------------------------
    ----------------------------------------
    ----------------------------------------
    10-10-10-10-10-10-10-10-4-4-4-4-6-6-6-6- X2
    10-10-10-10-10-10-10-10-4-4-4-4-6-6-6-6-
    9--9--9--9--9--9--9--9--2-2-2-2-4-4-4-4-
    
    chorus
    ---------------------------------------------------------------------------------
    ---------------------------------------------------------------------------------
    ----------------------------------------10-10-10-10-10-10-10-10------------------
    11-11-11-11-11-11-11-11-----------------10-10-10-10-10-10-10-10--4-4-4-4-6-6-6-6-
    11-11-11-11-11-11-11-11-8-8-8-8-8-8-8-8--8--8--8--8--8--8--8--8--4-4-4-4-6-6-6-6-
    9--9--9--9--9--9--9--9--6-6-6-6-6-6-6-6--------------------------2-2-2-2-4-4-4-4-
    X4
    
    then verse 2 times, then chorus 4 times, i dont know, i lost track of when to
    play what, but those are all the tabs. email me for anything- theckyguy502@a0l.com
     

    Тональность:

    Это должно быть в ТОП-листе! - Топ-лист композиций



    Назад
    Рекомендуем посмотреть другие песни исполнителя «Misfits»:

    • Комменты Fb ()
    • Комменты ВК



    Добавить в Избранное Браузера
    Сохранить здесь Очистить


    x

    0


    +
    -

    +
    -

    -

    Авторизация





    Зарегистрироваться

    M

    Дата и время

    • 09:53:48
       

    Социальные ссылки


    Наши приложения

    • Muzbank App Play Market
    • Muzbank Amazon App