MUZBANK



A Most Complete Bank Of Music Information

МУЗЫКАЛЬНО-ИНФОРМАЦИОННЫЙ БАНК

Поиск по сайту







    MMisfits • Dust To Dust (аккорды и текст - chords & lyrics)


    350

    Print

    Видео «Dust To Dust (Misfits)»

    Видео клипы к песне подбираются автоматически сайтом youtube. Возможны некоторые несоответствия клипов песне.

    ↑ Спрятать рекламу ↑



    Download


     
    
    
    -------------------------------------------------------------------------------
                              DUST TO DUST - Misfits
    -------------------------------------------------------------------------------
    Tune down 1/2 step:
    
    Drums...
    
    |----------------------------|----------------------------|
    |--------play-4-times--------|--------play-4-times--------|
    |-4--------------------------|-4--------------------------|
    |-4-----2-----5--------------|-4-----2-----5--------------|
    |-2-----2-----5--------7-5-7-|-2-----2-----5--------7-5-7-|
    |-------0-----3--------5-3-5-|-------0-----3--------5-3-5-|
                                                        pm---
    |----------------------------|---------------|
    |--------play-3-times--------|---------------|
    |-4--------------------------|-4-------------|
    |-4-----2-----5--------------|-4-----2-----5-|
    |-2-----2-----5--------7-5-7-|-2-----2-----5-|
    |-------0-----3--------5-3-5-|-------0-----3-|
    
    |----------------------|
    |-----play-4-times-----|
    |-7--------------------|
    |-7-----------5------2-|
    |-5-----------5------2-|
    |-------------3------0-|
    
    |----------------------------|-------------------------------|
    |--------play-4-times--------|----------play-4-times---------|
    |-4--------------------------|-4-4-4-------------------------|
    |-4-----2-----5--------------|-4-4-4-2-2-2-5-5-5-5-5-5-------|
    |-2-----2-----5--------7-5-7-|-2-2-2-2-2-2-5-5-5-5-5-5-7-5-7-|
    |-------0-----3--------5-3-5-|-------0-0-0-3-3-3-3-3-3-5-3-5-|
                                   pm---------------------------
    
    |----------------------------|---------------|
    |--------play-3-times--------|---------------|
    |-4--------------------------|-4-------------|
    |-4-----2-----5--------------|-4-----2-----5-|
    |-2-----2-----5--------7-5-7-|-2-----2-----5-|
    |-------0-----3--------5-3-5-|-------0-----3-|
    
    |----------------------|
    |-----play-4-times-----|
    |-7--------------------|
    |-7-----------5------2-|
    |-5-----------5------2-|
    |-------------3------0-|
    
    |----------------------------|---------------|
    |--------play-3-times--------|---------------|
    |-4--------------------------|-4-------------|
    |-4-----2-----5--------------|-4-----2-----5-|
    |-2-----2-----5--------7-5-7-|-2-----2-----5-|
    |-------0-----3--------5-3-5-|-------0-----3-|
    
    |------------------------|
    |-------(feedback)-------|
    |------------------------|
    |-4------5------6------7-|
    |-2------3------4------5-|
    |------------------------|
    
    |----------------------|
    |-----play-4-times-----|
    |-7--------------------|
    |-7-----------5------2-|
    |-5-----------5------2-|
    |-------------3------0-|
    
    |----------------------------|---------------|
    |--------play-3-times--------|---------------|
    |-4--------------------------|-4-------------|
    |-4-----2-----5--------------|-4-----2-----5-|
    |-2-----2-----5--------7-5-7-|-2-----2-----5-|
    |-------0-----3--------5-3-5-|-------0-----3-|
     

    Тональность:

    Нет текста!



    Назад
    Рекомендуем посмотреть другие песни исполнителя «Misfits»:

    • Комментарии Facebook ()
    • Комментарии ВКонтакте



    Добавить в Избранное Браузера
    Сохранить здесь Очистить


    x

    0


    +
    -

    +
    -

    -

    Авторизация





    Зарегистрироваться

    M

    Дата и время

    • 15:15:24
       

    Социальные ссылки


    Наши приложения

    • Muzbank App Play Market
    • Muzbank Amazon App