MUZBANK



A Most Complete Bank Of Music Information

МУЗЫКАЛЬНО-ИНФОРМАЦИОННЫЙ БАНК

Поиск по сайту







    MMisfits • Scarecrowman (аккорды и текст - chords & lyrics)


    167

    Print

    Видео «Scarecrowman (Misfits)»

    Видео клипы к песне подбираются автоматически сайтом youtube. Возможны некоторые несоответствия клипов песне.

    ↑ Спрятать рекламу ↑



    Download


     
    
    
    -------------------------------------------------------------------------------
                               SCARECROW MAN - Misfits
    -------------------------------------------------------------------------------
    
    > (god damned fret number) that means bend NOTE
    
    worldind138@aol.com
    tune down 1/2 step
    
    feeback on E with tremolo pedal
    
    intro
    eb:-----------------------
    Bb:-----------------------
    Gb:-----------------------
    Db:-----------------------
    Ab:---------------------2-
    Eb:0--7p0-7p0-0-7p0-7p0-0-
    
    verse
    eb:----------------------------------
    Bb:----------------------------------
    Gb:----------------------------------
    Db:----------------------------------
    Ab:----------------------------------
    Eb:0-3-0-3-0-3--0-3-0-3-0-3--6-6-6p0-
    
    pre chorus
    eb:----------------
    Bb:----------------
    Gb:7-5-4-7-5-4-----
    Db:7-5-4-7-5-4-----
    Ab:5-3-2-5-3-2-(3)-
    Eb:----------------
    
    chorus
    eb:--------------------------------
    Bb:--------------------------------
    Gb:--------------------------------
    Db:--------------------------------
    Ab:--------------------------------
    Eb:0-3-0-3-03-0-3-0-3-0-3-/9-5-3-2-
    
    solo start F# G
    
    solo
    
     solo (Victor O.):
    |----------------------------------------------
    |---------10-12-10-----------------------------
    |-9-11-12----------12-11-12-11--12-11-9///--
    |----------------------------------------------
    |----------------------------------------------
    |----------------------------------------------
    
    |--------------------------------------------------------------------------
    |10---8---7---8----10----12----15----13-----12-----------------------------
    |12^--10^-9^--10^--12^---14^---17^---15^----14^-------17///-------------
    |--------------------------------------------------------------------------
    |--------------------------------------------------------------------------
    |--------------------------------------------------------------------------
     

    Тональность:

    Нет текста!



    Назад
    Рекомендуем посмотреть другие песни исполнителя «Misfits»:

    • Комментарии Facebook ()
    • Комментарии ВКонтакте



    Добавить в Избранное Браузера
    Сохранить здесь Очистить


    x

    0


    +
    -

    +
    -

    -

    Авторизация





    Зарегистрироваться

    M

    Дата и время

    • 03:35:04
       

    Социальные ссылки


    Наши приложения

    • Muzbank App Play Market
    • Muzbank Amazon App