MUZBANK



A Most Complete Bank Of Music Information

МУЗЫКАЛЬНО-ИНФОРМАЦИОННЫЙ БАНК

Поиск по сайту







    MMisfits • Witch Hunt (аккорды и текст - chords & lyrics)


    281

    Print

    Видео «Witch Hunt (Misfits)»

    Видео клипы к песне подбираются автоматически сайтом youtube. Возможны некоторые несоответствия клипов песне.

    ↑ Спрятать рекламу ↑



    Download


     
    
    
    -------------------------------------------------------------------------------
                                   WITCH HUNT - Misfits
    -------------------------------------------------------------------------------
    
    
    Tune down 1/2 step:
    
    |-------------------------------------|
    |-------------play-2-times------------|
    |-7-7-7-7-8-8-8-8---------10-10-10-10-|
    |-7-7-7-7-8-8-8-8-8-8-8-8-10-10-10-10-|
    |-5-5-5-5-6-6-6-6-8-8-8-8--8--8--8--8-|
    |-----------------6-6-6-6-------------|
    
    |-------------------------------------|------------------------|
    |-------------play-4-times------------|------------------------|
    |-7-7-7-7-8-8-8-8---------10-10-10-10-|-8-------------8--------|
    |-7-7-7-7-8-8-8-8-8-8-8-8-10-10-10-10-|-8------8------8------3-|
    |-5-5-5-5-6-6-6-6-8-8-8-8--8--8--8--8-|-6------8------6------3-|
    |-----------------6-6-6-6-------------|--------6-------------1-|
      PM---------------------------------
    
    |-------------------------------------|
    |-------------play-2-times------------|
    |-7-7-7-7-8-8-8-8---------10-10-10-10-|
    |-7-7-7-7-8-8-8-8-8-8-8-8-10-10-10-10-|
    |-5-5-5-5-6-6-6-6-8-8-8-8--8--8--8--8-|
    |-----------------6-6-6-6-------------|
    
    |-------------------------------------|------------------------|
    |-------------play-4-times------------|------------------------|
    |-7-7-7-7-8-8-8-8---------10-10-10-10-|-8-------------8--------|
    |-7-7-7-7-8-8-8-8-8-8-8-8-10-10-10-10-|-8------8------8------3-|
    |-5-5-5-5-6-6-6-6-8-8-8-8--8--8--8--8-|-6------8------6------3-|
    |-----------------6-6-6-6-------------|--------6-------------1-|
      PM---------------------------------
    
    |-----------------------|-------------------------|
    |------play-3-times-----|-------------------------|
    |-----------------------|-------------------------|
    |-8--8--8--8--8--8-8-7-|-8--8--8----8-8-8-8-8--8-|
    |-x--x--x--x--x--x-x-x-|-x--x--x----x-x-x-x-x--x-|
    |-6--6--6--6--6--6-6-5-|-6--6--6----6-6-6-6-6--6-|
    
    |---------------w/-solo---------------|------------------------|
    |-------------play-4-times------------|------------------------|
    |-7-7-7-7-8-8-8-8---------10-10-10-10-|-8-------------8--------|
    |-7-7-7-7-8-8-8-8-8-8-8-8-10-10-10-10-|-8------8------8------3-|
    |-5-5-5-5-6-6-6-6-8-8-8-8--8--8--8--8-|-6------8------6------3-|
    |-----------------6-6-6-6-------------|--------6-------------1-|
    
    |-----------------------------|-----------------------|
    |-----------------------------|------play-3-times-----|
    |-----------------------------|-----------------------|
    |-3-3-3-3-3-3-3-3-3-3-3-3-3-3-|-8--8--8--8--8--8-8-7-|
    |-3-3-3-3-3-3-3-3-3-3-3-3-3-3-|-x--x--x--x--x--x-x-x-|
    |-1-1-1-1-1-1-1-1-1-1-1-1-1-1-|-6--6--6--6--6--6-6-5-|
    
    |-------------------------|
    |-------------------------|
    |-------------------------|
    |-8--8--8----8-8-8-8-8--8-|
    |-x--x--x----x-x-x-x-x--x-|
    |-6--6--6----6-6-6-6-6--6-|
     

    Тональность:

    Нет текста!



    Назад
    Рекомендуем посмотреть другие песни исполнителя «Misfits»:

    • Комментарии Facebook ()
    • Комментарии ВКонтакте



    Добавить в Избранное Браузера
    Сохранить здесь Очистить


    x

    0


    +
    -

    +
    -

    -

    Авторизация





    Зарегистрироваться

    M

    Дата и время

    • 10:00:41
       

    Социальные ссылки


    Наши приложения

    • Muzbank App Play Market
    • Muzbank Amazon App