MUZBANK



A Most Complete Bank Of Music Information

МУЗЫКАЛЬНО-ИНФОРМАЦИОННЫЙ БАНК

Поиск по сайту







    ММоцарт Вольфганг Амадей • Концерт для фортепьяно №21 в C, 2-ая часть Анданте, К.467 (аккорды и текст - chords & lyrics)


    325

    Print

    Видео «Концерт для фортепьяно №21 в C, 2-ая часть Анданте, К.467 (Моцарт Вольфганг Амадей)»

    Видео клипы к песне подбираются автоматически сайтом youtube. Возможны некоторые несоответствия клипов песне.

    ↑ Спрятать рекламу ↑



    Download


    E|---------------------------------|
    B|---------------------------------|
    G|---------------------------------|
    D|------4---4---4-------4---4---4--|
    A|------0---0---0-------0---0---0--|
    D|--0--(0)-(0)-(0)--0--(0)-(0)-(0)-|
    
    E||------------------2--(2)-(2)------|
    B||--3--(3)-(3)--------------------3-|
    G|*--------------2-------------------|
    D|*------4---4-----------4---4---4---|
    A||------0---0-----------0---0---0---|
    D||--0--(0)-(0)-(0)--0--(0)-(0)-(0)--|
    
    E|--5-----------------------3-2-0---|
    B|--------------------------------3-|
    G|----------------------------------|
    D|------4---4---4-------4---4---4---|
    A|------0---0---0-------0---0---0---|
    D|--0--(0)-(0)-(0)--0--(0)-(0)-(0)--|
    
    E|----------0----------------------|
    B|--4------------------------------|
    G|------0---0---0-------0---0---0--|
    D|------2---2---2-------2---2---2--|
    A|--0--(0)-(0)-(0)--0--(0)-(0)-(0)-|
    D|---------------------------------|
    
    E|--------------------------0--(0)-|
    B|------------------2--(2)---------|
    G|--2--(2)-(2)-(2)------0---0---0--|
    D|------5---5---5-------2---2---2--|
    A|--0--(0)-(0)-(0)--0--(0)-(0)-(0)-|
    D|---------------------------------|
    
    E|--3--(3)-(3)-(3)-(3)--7---5---3--|
    B|---------------------------------|
    G|------0---0---0-------0---0---0--|
    D|------2---2---2------------------|
    A|--0---------------0--(0)-(0)-(0)-|
    D|---------------------------------|
    
    E|------2---2----------------------|
    B|--6------------------------------|
    G|------2---2---2------------------|
    D|------4---4---4-------4---4---4--|
    A|----------------------0---0---0--|
    D|--0--(0)-(0)-(0)--0--(0)-(0)-(0)-|
    
    E|--5--(5)-(5)-(5)-----------------|
    B|------3---3---3-------3---3---3--|
    G|------5---5---5-------5---5---5--|
    D|---------------------------------|
    A|---------------------------------|
    D|--4--(4)-(4)-(4)--4--(4)-(4)-(4)-|
    
    E|---------------------------------|
    B|------3---3---3-------3---3---3--|
    G|------4---4---4-------4---4---4--|
    D|------------------5--(5)-(5)-(5)-|
    A|--0------------------------------|
    D|------5---5----------------------|
    
    E|--7--(7)-(7)-(7)----------------|
    B|------6---6---6-------6---6---6-|
    G|------7---7---7-------7---7---7-|
    D|--------------------------------|
    A|--------------------------------|
    D|--6--(6)-(6)-(6)--6--(6)-(6)--6-|
    
    E|----------5--(5)-(5)-(5)--3-2-----|
    B|------------------------------5-3-|
    G|------2---2---2-------2---2---2---|
    D|------4---4---4-------4---4---4---|
    A|--0--(0)-(0)-(0)--0--(0)-(0)-(0)--|
    D|----------------------------------|
    
    E|----------------------------------||
    B|--2--(2)-(2)-(2)-(2)-(2)-(2)--0-2-||
    G|------0---0---0-------0---0---0---*|
    D|------2---2---2-------2---2---2---*|
    A|--0--(0)-(0)-(0)--0--(0)-(0)-(0)--||
    D|----------------------------------||
    
    E|------------------------------2---|
    B|--3-----------------------------3-|
    G|----------------------------------|
    D|--4-------------------------------|
    A|----------------------------------|
    D|--0-------------------------------|
    
    E|--5-------5-------5-------5-------|
    B|------2---2---2-------2---2---2---|
    G|------0---0---0-------0---0---0---|
    D|----------------------------------|
    A|--0--(0)-(0)-(0)--0--(0)-(0)-(0-)-|
    D|----------------------------------|
    
    E|--5------10---------------2-------|
    B|----------7---------------3-----3-|
    G|----------------------------------|
    D|------0---0---0-------4---4---4---|
    A|----------------------------------|
    D|--0--(0)-(0)-(0)--0--(0)-(0)-(0)--|
    
    E|--5-------5-------5-------3---2-0-|
    B|------2---2---2-------2-------2---|
    G|------0---0---0-------0-------0---|
    D|----------------------------------|
    A|--0--(0)-(0)-(0)--0--(0)-(0)-(0)--|
    D|----------------------------------|
    
    E|------------------5-|-10-|
    B|--3---------------7-|--7-|
    G|--------------------|----|
    D|--4---------------0-|----|
    A|--------------------|----|
    D|--0-----------------|--0-|
    

    Тональность:

    Нет текста!



    Назад
    Рекомендуем посмотреть другие песни исполнителя «Моцарт Вольфганг Амадей»:

    • Комментарии Facebook ()
    • Комментарии ВКонтакте



    Добавить в Избранное Браузера
    Сохранить здесь Очистить


    x

    0


    +
    -

    +
    -

    -

    Авторизация





    Зарегистрироваться

    M

    Дата и время

    • 23:24:39
       

    Социальные ссылки


    Наши приложения

    • Muzbank App Play Market
    • Muzbank Amazon App