MUZBANK



A Most Complete Bank Of Music Information

МУЗЫКАЛЬНО-ИНФОРМАЦИОННЫЙ БАНК

Поиск по сайту







    ММоцарт Вольфганг Амадей • Симфония №25 - главная тема K.183 (аккорды и текст - chords & lyrics)


    400

    Print

    Видео «Симфония №25 - главная тема K.183 (Моцарт Вольфганг Амадей)»

    Видео клипы к песне подбираются автоматически сайтом youtube. Возможны некоторые несоответствия клипов песне.

    ↑ Спрятать рекламу ↑



    Download


    E|-3-3---3-----3-----3-------|-------------------------|
    B|-------------------------3-|-3-----3---3---3-----4-4-|
    G|-0-0---0-----0-----0-------|-------------------------|
    D|-------------------------0-|-0-----0---0---0-----1-1-|
    A|---------------------------|-------------------------|
    E|---------------------------|-------------------------|
    
    E|----------------------------|
    B|-4---4-----4----------------|
    G|----------------------------|
    D|-1---1-----1-----4---4-----4|
    A|----------------------------|
    E|-----------------2---2-----2|
    
    E|-------------------------------------3-|
    B|-------------------------------3-------|
    G|-------------------------3-------------|
    D|-4--------4--------5-------------------|
    A|---------------------------------------|
    E|-2--------2----------------------------|
    
    
    E|-6--5--3--2--3-------------------------3-----6|
    B|---------------------------------3------------|
    G|----------------------------3-----------------|
    D|----------------------5-----------------------|
    A|----------------------------------------------|
    E|----------------------------------------------|
    
    E|-5--3--2--3-----------------------5-----8--7|
    B|----------------------------7---------------|
    G|-------------------------5------------------|
    D|-------------------7------------------------|
    A|--------------------------------------------|
    E|--------------------------------------------|
    
    E|-5--4--5-------------------------5-----8--7--5|
    B|---------------------------7------------------|
    G|---------------------5------------------------|
    D|----------------7-----------------------------|
    A|----------------------------------------------|
    E|----------------------------------------------|
    
    E|-4--5-------------------------6----10--8--6--5|
    B|------------------------8---------------------|
    G|-------------------7--------------------------|
    D|-------------8--------------------------------|
    A|----------------------------------------------|
    E|----------------------------------------------|
    
    E|-6-----8--6--5--3--5--6--5-3-2-3---2-3|
    B|--------------------------------------|
    G|--------------------------------------|
    D|--------------------------------------|
    A|--------------------------------------|
    E|--------------------------------------|
    
    E|-2-3-----------------------------|-------------------------3-|
    B|-----2-3-2-3---------------------|---------------------------|
    G|-------------2-3-2-3---------5-5-|-5-2-2-2-----------------0-|
    D|---------------------4-5-4-5-----|---------4-4-4-5-5-5-4-----|
    A|---------------------------------|-----------------------5---|
    E|---------------------------------|---------------------------|
    
    E|-3-----3-----3-----3-------|-----------------------------|
    B|---------------------3---3-|-3-----3-----3---4---4-----4-|
    G|-0-----0-----0-----0-------|-----------------------------|
    D|---------------------0---0-|-0-----0-----0---1---1-----1-|
    A|---------------------------|-----------------------------|
    E|---------------------------|-----------------------------|
    
    E|----------------------|-----3---------|--------------3|
    B|-4-----4--------------|---------3---4-|---------------|
    G|----------------------|---------------|---------------|
    D|-1-----1---4-4---4--4-|-4-------------|-4---5---------|
    A|----------------------|---------------|---------------|
    E|-----------2-2---2--2-|-2-------------|---------------|
    
                                       *
    E|6-----------------------|--------6-5-3-----|*повторить 2 раза
    B|----2-----3--2--3--2-3-2|3-2-3---------6-6-|
    G|------------------------|------3-----------|
    D|------------------------|------------------|
    A|------------------------|------------------|
    E|------------------------|------------------|
    
    E|--------5-3------------------|
    B|6---6-------6---6---6---6----|
    G|-----------------------------|
    D|-----------------------------|
    A|-----------------------------|
    E|-----------------------------|
    
    E|---------18-22-18----------18-22-18------------|
    B|------18----------18----18-------------------16|
    G|---19----------------19------------------------|
    D|20-------------------------------------17-20---|
    A|------------------------------------18---------|
    E|-----------------------------------------------|
    
    E|-----------------------------------------17-20|
    B|20-16----------16-20-16---------------16------|
    G|-----------------------------------17---------|
    D|------20-17-20----------20-17---19------------|
    A|----------------------------------------------|
    E|----------------------------------------------|
    
    E|17----------17-20-17------------------------|
    B|------------------------------------15-18-15|
    G|---20-17-20----------20-17-------15---------|
    D|------------------------------15------------|
    A|---------------------------17---------------|
    E|--------------------------------------------|
    
    E|-----------------------------------18-15------|
    B|---------15-18------------------15-------15---|
    G|15----15-------15------------15-------------15|
    D|---15-------------15------15------------------|
    A|-----------------------17---------------------|
    E|----------------------------------------------|
    
    E|---------15-18-15-----------------------------|
    B|------15----------15---------------13-16-13---|
    G|---15----------------15---------12------------|
    D|15---------------------------13-------------17|
    A|--------------------------15------------------|
    E|----------------------------------------------|
    
    E|---------------------11-11-8-8-5-5----|
    B|------13-16-13---------------------6-6|
    G|--------------------------------------|
    D|13-17----------17-13------------------|
    A|--------------------------------------|
    E|--------------------------------------|
    
    E|-----------------10-10-6-6-----|---------------------9-9-6-6-|
    B|---------------------------6-6-|-----------------------------|
    G|-8-8-5-5-----------------------|-7-7-------------------------|
    D|---------7-7-------------------|-----8-8---------------------|
    A|-------------8-8---------------|---------8-8-5-5-------------|
    E|-------------------------------|-----------------6-6---------|
    
    E|----------------------9-9-6-6|-------------------------------|
    B|6-6--------------------------|8-8-5-5------------------------|
    G|----6-6----------------------|--------6-6--------------------|
    D|--------8-8-4-4--------------|------------8-8-5-5-----3-3-4-4|
    A|----------------6-6----------|--------------------7-7--------|
    E|-----------------------------|-------------------------------|
    
    E|-----------------------|------------------|----------------|
    B|--------------6--------|--------------3---|3-6-4-3---------|
    G|-----------------------|3---2-3-5-3-5---5-|--------5-------|
    D|3-3-------3-----3------|------------------|----------------|
    A|----7-7----------------|------------------|----------------|
    E|-----------------------|------------------|----------------|
    
    E|---------------------------|--------------------6-6-|
    B|--------------------3------|3---6---4-3-------------|
    G|3-2-3---5---3---5-------5--|------------5---3-------|
    D|---------------------------|------------------------|
    A|---------------------------|------------------------|
    E|---------------------------|------------------------|
    
    E|6---6-5---3------------------|
    B|--------------6---4---8---8--|
    G|-----------------------------|
    D|-----------------------------|
    A|-----------------------------|
    E|-----------------------------|
    
    E|-----------------------------------------------|
    B|-8-----8-----6-----4---------------------------|
    G|-------------------------7-----5-----8-----8---|
    D|-----------------------------------------------|
    A|-----------------------------------------------|
    E|-----------------------------------------------|
    
    E|----------------------------------------------|
    B|-------------------6--------------------------|
    G|-8-----8-----7----------------7-----5-----3---|
    D|-------------------------8--------------------|
    A|----------------------------------------------|
    E|----------------------------------------------|
    
    E|--------------------------------------------|
    B|--------------------------------------------|
    G|-2-----3------------------------------------|
    D|--------------------------------------------|
    A|--------------------------------------------|
    E|--------------------------------------------|
    

    Тональность:

    Нет текста!



    Назад
    Рекомендуем посмотреть другие песни исполнителя «Моцарт Вольфганг Амадей»:

    • Комментарии Facebook ()
    • Комментарии ВКонтакте



    Добавить в Избранное Браузера
    Сохранить здесь Очистить


    x

    0


    +
    -

    +
    -

    -

    Авторизация





    Зарегистрироваться

    M

    Дата и время

    • 11:42:51
       

    Социальные ссылки


    Наши приложения

    • Muzbank App Play Market
    • Muzbank Amazon App