MUZBANK



A Most Complete Bank Of Music Information

МУЗЫКАЛЬНО-ИНФОРМАЦИОННЫЙ БАНК

Поиск по сайту







    ММоцарт Вольфганг Амадей • Симфония №40 g-moll (аккорды и текст - chords & lyrics)


    572

    Print

    Видео «Симфония №40 g-moll (Моцарт Вольфганг Амадей)»

    Видео клипы к песне подбираются автоматически сайтом youtube. Возможны некоторые несоответствия клипов песне.

    ↑ Спрятать рекламу ↑



    Download


    E|---------------------------------------------------------|
    B|-4-3-3---4-3-3---4-3-3---11~--11-10-8---8-6-4----4-3-1-1-|
    G|---------------------------------------------------------|
    D|---------------------------------------------------------|
    A|---------------------------------------------------------|
    E|---------------------------------------------------------|
    
    E|--------------------------------------------------------|
    B|-3-1-1---3-1-1---3-1-1---10~--10-8-7---7-4-3----3-1-----|
    G|----------------------------------------------------3-3-|
    D|--------------------------------------------------------|
    A|--------------------------------------------------------|
    E|--------------------------------------------------------|
    
    E|-------------------------------------------------------------|
    B|-11-10-10-13--7-10-8-3~-11-10-10-13-7-10-8~--11~--10-8-6-4-3-|
    G|-------------------------------------------------------------|
    D|-------------------------------------------------------------|
    A|-------------------------------------------------------------|
    E|-------------------------------------------------------------|
    
    E|--------------------------------------------------------|
    B|--------------------------------------------------------|
    G|-------6----5-3-2---7----6---7---6---7---6----7-6-7-6-7-|
    D|-4-5-7-8----------5-4----5---4---5---4---5----4-5-4-5-4-|
    A|--------------------------------------------------------|
    E|--------------------------------------------------------|
    

    Тональность:

    Нет текста!



    Назад
    Рекомендуем посмотреть другие песни исполнителя «Моцарт Вольфганг Амадей»:

    • Комментарии Facebook ()
    • Комментарии ВКонтакте



    Добавить в Избранное Браузера
    Сохранить здесь Очистить


    x

    0


    +
    -

    +
    -

    -

    Авторизация





    Зарегистрироваться

    M

    Дата и время

    • 02:49:07
       

    Социальные ссылки


    Наши приложения

    • Muzbank App Play Market
    • Muzbank Amazon App