MUZBANK



A Most Complete Bank Of Music Information

МУЗЫКАЛЬНО-ИНФОРМАЦИОННЫЙ БАНК

Поиск по сайту







    ММоцарт Вольфганг Амадей • Соната для фортепьяно в G, 3-ая часть К.283 (аккорды и текст - chords & lyrics)


    370

    Print

    Видео «Соната для фортепьяно в G, 3-ая часть К.283 (Моцарт Вольфганг Амадей)»

    Видео клипы к песне подбираются автоматически сайтом youtube. Возможны некоторые несоответствия клипов песне.

    ↑ Спрятать рекламу ↑



    Download


    E||---------^-^-^-|----------|--3-----2--|2-0-------|
    B||--0-----1-0-1-0|-3-----3--|--5-----3--|--1-----3-|
    G||--0-----2------|-4-----4--|-----------|--------4-|
    D||---------------|----------|-----------|----------|
    A||---------------|----------|-----------|----------|
    E||--3--3--3------|-3--3--3--|--3--3--3--|--3--3--3-|
    
    E|--------^-^-^--|---------|-0-------|-^---------|-------------|
    B|-0-----1-0-1-0-|-3-----3-|-1-----3-|3-1-----0--|---------0---|
    G|-0-----2-------|-4-----4-|-------4-|--2-----0--|---0---0---0-|
    D|---------------|---------|---------|-----------|-0---4-------|
    A|---------------|---------|---------|-----------|-2-----------|
    E|-3--3--3-------|-3--3--3-|-3--3--3-|--3--3--3--|-------------|
    
    E|--------------|--------------|----------0---|----------8----|
    B|----------1---|----0---0-3-0-|----1-0-1---1-|--3-------10---|
    G|----2-1-2---2-|------3-------|--0-----------|---------------|
    D|--2-----------|--4-----------|--2-----------|----0---0----0-|
    A|--3-----------|--5-----------|--------------|------4---9----|
    E|--------------|--------------|--------------|--2------------|
    
    E|-7-----------|---------2---|-3-----------|--------------|
    B|-8-------3---|-1-------1---|-0-------0---|--1---0---1-0-|
    G|-0-------4---|-2-----------|---------0---|----1---2-----|
    D|---0---0---0-|---0---0---0-|---0---0---0-|--2-----------|
    A|-----4-------|-0---4---0---|-2---4---2---|--3-----------|
    E|---------3---|-------------|-------------|--------------|
    
    E|------0-----|-----------|-----------|-----------|----------|
    B|--3-1-------|-----------|-----0-----|-----------|----------|
    G|---------0--|-----5-----|--0-----0--|-----2-----|-----0----|
    D|------------|--4-----4--|--2-----2--|--2-----2--|--0-----0-|
    A|---------3--|--5-----5--|-----------|--3-----3--|--2-----2-|
    E|------------|-----------|-----------|-----------|----------|
    
    E|---------|---------|-------------|---------0---|-2-----------|
    B|---------|---------|-------------|-----1-----1-|-1-----------|
    G|---------|----0--2-|-4-------2---|---0---0-----|-2-0---0-2---|
    D|-0--4--0-|---------|-3-5-4-5---5-|-2-----------|-----4-----4-|
    A|-0-----0-|-2-------|-5-----------|-------------|-------------|
    E|---------|-3-------|-3-----------|-3-----------|-3-----------|
    
    E|--3-7-3-------|--------------|----------0---|--2-----------|
    B|--------3-----|--------------|------1-----1-|--1-----------|
    G|----------4---|--4-------2---|----0---0-----|--2-0---0-2---|
    D|------------5-|--3-5-4-5---5-|--2-----------|------4-----4-|
    A|--------------|--5-----------|--------------|--------------|
    E|--3-----------|--3-----------|--3-----------|--3-----------|
    
    E|--3-5-7-3-2---|--0-----------|--------------|--------------|
    B|------------4-|----------3---|--3---1---0---|--0-------0---|
    G|--------------|----0---0---0-|----0---0---0-|----0-2-0---0-|
    D|--------------|------4---0---|--2---2---0---|------4---0---|
    A|--------------|--3-----------|--------------|--3-----------|
    E|--3-----------|--------------|--------------|--------------|
    
    E|-------------|-------------|-------------|-----10--10--|--10-|
    B|-3---1---0---|-0-------0---|-3---1---0---|-------------|-----|
    G|---0---0---0-|---0-2-0---0-|---0---0---0-|--2--11--11--|--11-|
    D|-2---4---0---|-----4---0---|-2---4-------|--4--7-------|-----|
    A|-------------|-3-----------|---------4---|--5------9---|-----|
    E|-------------|-------------|-------------|-------------|--10-|
    
    E|-5--4--7-|-5--4--7-|-------0-|--------0--|--------2---|
    B|---------|---------|-3--2----|--3--2-----|--3-------3-|
    G|---------|---------|-------0-|--------0--|------------|
    D|---------|---------|-4--2----|--4--2-----|--4-----0---|
    A|---------|---------|-0-------|--0--------|--0--0------|
    E|---------|---------|---------|-----------|------------|
    
    E|--3-----0---|----------2-|-------3---5-|--3--2--5-|
    B|----------2-|--3---------|--5--5---7---|----------|
    G|--------0---|--------2---|-------------|----------|
    D|------------|--4-----0---|-------------|----------|
    A|--4--0------|-----0------|--4----------|----------|
    E|------------|------------|-------------|----------|
    
    E|-3--2--5--|--3--------|--3--------|--3-----0---|----------2-|
    B|----------|--2--0--3--|--2--0--3--|--2-------2-|--3---------|
    G|----------|-----------|-----------|--------0---|--------2---|
    D|----------|--2--0--4--|--2--0--4--|--2---------|--4-----0---|
    A|----------|--0--------|--0--------|--0--0------|-----0------|
    E|----------|-----------|-----------|------------|------------|
    
    E|--0-------3-|-2--2-5-3-7-|--5--------|-------------|
    B|------------|----3---5---|--7--------|-------------|
    G|--------2---|------------|-----------|-----------0-|
    D|------------|-0----------|--0-----2--|--0--0-4-2---|
    A|--4--0--4---|------------|-----4-----|-----2---4---|
    E|------------|------------|-----------|-------------|
    
    E|--7--6--9--|--7----------|----------|------------|--0-----2-|
    B|--0--------|-------3---5-|--3-------|------0---1-|-----4----|
    G|-----3--6--|--4--4---5---|--4-------|----0---2---|--0-------|
    D|--4--------|-----5---7---|--5--4--7-|-5--2---4---|--2--1--4-|
    A|--5--------|-------------|----------|------------|--2-------|
    E|-----------|-------------|--3--2--5-|-3----------|----------|
    
    E|--0--0---2-0-|--3-0--------|--3-0-------|-3-0-------|
    B|-------4-----|------2------|------2-----|-----2-----|
    G|-------------|--------3-2--|--------3-2-|-------3-2-|
    D|--2----------|----------2--|----------2-|---------2-|
    A|-------------|----------4--|----------4-|---------4-|
    E|-------------|-------------|------------|-----------|
    
    E|--3-0--------|----------5--|----------10--|--------------|
    B|------2------|--------3-7--|----------8---|--------------|
    G|--------3-2--|------2---7--|--------0-7---|--2-----------|
    D|----------2--|--0-4-----0--|------0---9---|----4---4---4-|
    A|----------4--|-------------|----2---------|--0---5---0---|
    E|-------------|-------------|--3-----------|--------------|
    
    E|--^-^-^-^-^-^-^-^-^---^-^---|-------5--|--3--2--2--|--2------|
    B|-5-7-5-7-5-7-5-7-5-7-3-5-3--|----------|-----------|-------7-|
    G|-0--------------------------|----------|-----------|---------|
    D|----------------------------|--0-------|--------2--|--0------|
    A|---------7-------0----------|----------|--------1--|--2------|
    E|----------------------------|----------|-----------|---------|
    
    E|--8--7--7-|-7--------|--5--------|--3----2-|
    B|----------|-------5--|--------0--|---------|
    G|----------|----------|--------0--|---------|
    D|--------7-|----6--5--|-----4-----|-------0-|
    A|--------6-|----5--4--|-----3--2--|--4----2-|
    E|----------|----------|-----------|--5------|
    
    E|--^-^-^-^-^-^-^-^-^---^-^--|
    B|-5-7-5-7-5-7-5-7-5-7-3-5-3-|
    G|-0-------------------------|
    D|---------------------------|
    A|---------7-------0---------|
    E|---------------------------|
    
    E|----------|-----------|--2-------|--------6--|-----5--4-|
    B|-3--------|--------6--|----------|--------5--|-----4--3-|
    G|-------2--|--------4--|--3-------|--5h-4--4--|--4-------|
    D|----0-----|--5h-4--4--|--4----4--|-----------|--------2-|
    A|----------|-----------|----------|-----------|----------|
    E|----------|-----------|----------|-----------|----------|
    
    E|----3--2--|--7------|--3------|--------2-5--|--------3-7-|
    B|----2--3--|---------|--2------|------3---3--|------3-----|
    G|-2--------|--7------|--2------|----2-----2--|----4-----7-|
    D|-------0--|--5------|---------|--4-------4--|--5-------5-|
    A|----------|---------|---------|-------------|----------5-|
    E|----------|---------|---------|-------------|------------|
    
    E|----------10-|---------10--|----10---10---10-|
    B|--------3----|---------8---|--7----7----7----|
    G|------2---7--|-------0-7---|-----------------|
    D|----4--------|-----0---9---|------------0----|
    A|--5-------9--|---2---------|--0--------------|
    E|-------------|-3-----------|-----------------|
    
    E|----10---10---10-|----9---9---9-|---9---9---9-|--10------|
    B|--7----7----7----|--5---5---5---|-5---5---5---|----------|
    G|-----------------|--0---0-------|-------------|--11------|
    D|------------7----|--------------|-------------|--0-----4-|
    A|--9--------------|----------7---|---------0---|----------|
    E|-----------------|--------------|-9---9-------|--------2-|
    
    E|-----------|-----------|----------|-------9--|-10-|
    B|-----------|-----------|----------|-------10-|-10-|
    G|-----------|-----------|----------|-------9--|-11-|
    D|--5--6--7--|--8--9--6--|--7----7--|----------|-0--|
    A|-----------|-----------|----------|--5----0--|----|
    E|--3--4--5--|--6--7--4--|--5----5--|----------|----|
    
    E|--------^-^-^--|---------|-3-----2-|-2-0-------|------^-^-^--|
    B|-0-----1-0-1-0-|-3-----3-|-5-----3-|---1-----3-|-0---1-0-1-0-|
    G|-0-----2-------|-4-----4-|---------|---------4-|-0---2-------|
    D|---------------|---------|---------|-----------|-------------|
    A|---------------|---------|---------|-----------|-------------|
    E|-3--3--3-------|-3--3--3-|-3--3--3-|---3--3--3-|-3-3-3-------|
    
    E|---------|-0-------|-^---------|--------------|--------------|
    B|-3-----3-|-1-----3-|3-1-----0--|----------0---|----------1---|
    G|-4-----4-|-------4-|--2-----0--|----0---0---0-|----2-1-2---2-|
    D|---------|---------|-----------|--0---4-------|--2-----------|
    A|---------|---------|-----------|--2-----------|--3-----------|
    E|-3--3--3-|-3--3--3-|--3--3--3--|--------------|--------------|
    
    E|-------------|----------0---|----------8----|--7-----------|
    B|---0---0-3-0-|----1-0-1---1-|--3-------10---|--8-------3---|
    G|-----3-------|--0-----------|---------------|--0-------4---|
    D|-4-----------|--2-----------|----0---0----0-|----0---0---0-|
    A|-5-----------|--------------|------4---9----|------4-------|
    E|-------------|--------------|--2------------|----------3---|
    
    E|----------2---|-3-----------|--------------|------0-----|
    B|--1-------1---|-0-------0---|--1---0---1-0-|--3-1-------|
    G|--2-----------|---------0---|----1---2-----|---------0--|
    D|----0---0---0-|---0---0---0-|--2-----------|------------|
    A|--0---4---0---|-2---4---2---|--3-----------|---------3--|
    E|--------------|-------------|--------------|------------|
    
    E|-----------|-----------|----------|----------|-----------|
    B|-----------|-----0-----|----------|----------|-----------|
    G|-----5-----|--0-----0--|-----2----|----0-----|-----------|
    D|--4-----4--|--2-----2--|--2-----2-|-0-----0--|--0--4--0--|
    A|--5-----5--|-----------|--3-----3-|-2-----2--|--0-----0--|
    E|-----------|-----------|----------|----------|-----------|
    
    E|-----------|--------------|----------0---|-2-----------|
    B|-----------|--------------|------1-----1-|-1-----------|
    G|-----0--2--|--4-------2---|----0---0-----|-2-0---0-2---|
    D|-----------|--3-5-4-5---5-|--2-----------|-----4-----4-|
    A|--2--------|--5-----------|--------------|-------------|
    E|--3--------|--3-----------|--3-----------|-3-----------|
    
    E|--3-7-3-------|--------------|----------0---|--2-----------|
    B|--------3-----|--------------|------1-----1-|--1-----------|
    G|----------4---|--4-------2---|----0---0-----|--2-0---0-2---|
    D|------------5-|--3-5-4-5---5-|--2-----------|------4-----4-|
    A|--------------|--5-----------|--------------|--------------|
    E|--3-----------|--3-----------|--3-----------|--3-----------|
    
    E|-3-5-7-3-2---|--0-----------|--------------|--------------|
    B|-----------4-|----------3---|--3---1---0---|--0-------0---|
    G|-------------|----0---0---0-|----0---0---0-|----0-2-----0-|
    D|-------------|------4---0---|--2---2---0---|------4-5-0---|
    A|-------------|--3-----------|--------------|--3-----------|
    E|-3-----------|--------------|--------------|--------------|
    
    E|--------------|-------------|--------------|-----10--10--|
    B|--3---1---0---|-0-------0---|--3---1---0---|-------------|
    G|----0---0---0-|---0-2-----0-|----0---0---0-|--2--11--11--|
    D|--2---4---0---|-----4-5-0---|--2---4-------|--4----------|
    A|--------------|-3-----------|----------4---|--5--12--9---|
    E|--------------|-------------|--------------|-------------|
    
    E|--10------|--5--4--7--|--5--4--7-|-------0--|--------0--|
    B|----------|-----------|----------|-3--2-----|--3--2-----|
    G|--11------|-----------|----------|-------0--|--------0--|
    D|----------|-----------|----------|-4--2-----|--4--2-----|
    A|----------|-----------|----------|-0--------|--0--------|
    E|--10------|-----------|----------|----------|-----------|
    
    E|--------2---|--3-----0---|----------2-|-------3---5-|
    B|--3-------3-|----------2-|--3---------|--5--5---7---|
    G|------------|--------0---|--------2---|-------------|
    D|--4-----0---|------------|--4-----0---|-------------|
    A|--0--0------|--4--0------|-----0------|--4----------|
    E|------------|------------|------------|-------------|
    
    E|-3--2--5--|--3--2--5--|--3--------|--3--------|--3-----0---|
    B|----------|-----------|--2--0--3--|--2--0--3--|--2-------2-|
    G|----------|-----------|-----------|-----------|--------0---|
    D|----------|-----------|--2--0--4--|--2--0--4--|--2---------|
    A|----------|-----------|--0--------|--0--------|--0--0------|
    E|----------|-----------|-----------|-----------|------------|
    
    E|----------2-|-0-------3-|--2--2-5-3-7-|--5--------|
    B|--3---------|-----------|-----3---5---|--7--------|
    G|--------2---|-------2---|-------------|-----------|
    D|--4-----0---|-----------|--0----------|--0--------|
    A|-----0------|-4--0--4---|-------------|-----4--7--|
    E|------------|-----------|-------------|-----------|
    
    E|-------------|--7--6--9--|-7----------|---------|------------|
    B|-------------|--0--------|------3---5-|-3-------|------0---1-|
    G|-----------0-|-----3--6--|-4--4---5---|-4-------|----0---2---|
    D|--0--0-4-2---|--4--------|----5---7---|-5--4--7-|-5--2---4---|
    A|-----2---4---|--5--------|------------|---------|------------|
    E|-------------|-----------|------------|-3--2--5-|-3----------|
    
    E|--0-----2--|--0--0---2-0-|--3-0--------|--3-0-------|
    B|-----4-----|-------4-----|------2------|------2-----|
    G|--0--------|-------------|--------3-2--|--------3-2-|
    D|--2--1--4--|--2----------|----------2--|----------2-|
    A|--2--------|-------------|----------4--|----------4-|
    E|-----------|-------------|-------------|------------|
    
    E|-3-0--------|--3-0--------|----------5--|----------10--|
    B|-----2------|------2------|--------3-7--|----------8---|
    G|-------3-2--|--------3-2--|------2---7--|--------0-7---|
    D|---------2--|----------2--|--0-4-----4--|------0---9---|
    A|---------4--|----------4--|-------------|----2---------|
    E|------------|-------------|-------------|--3-----------|
    
    E|-------------|--^-^-^-^-^-^-^-^-^---^-^--|------5-|-3--2--2--|
    B|-------------|-5-7-5-7-5-7-5-7-5-7-3-5-3-|--------|----------|
    G|-2-----------|-0-------------------------|--------|----------|
    D|---4---4---4-|---------------------------|-0------|-------2--|
    A|-0---5---0---|---------7-------0---------|--------|-------1--|
    E|-------------|---------------------------|--------|----------|
    
    E|--2------|-8--7--7--|--7--------|--5--------|--3----2-|
    B|-------7-|----------|--------5--|--------0--|---------|
    G|---------|----------|-----------|--------0--|---------|
    D|--0------|-------7--|-----6--5--|-----4-----|-------0-|
    A|--2------|-------6--|-----5--4--|-----3--2--|--4----2-|
    E|---------|----------|-----------|-----------|--5------|
    
    E|--^-^-^-^-^-^-^-^-^---^-^---|-----------|-----------|-2------|
    B|-5-7-5-7-5-7-5-7-5-7-3-5-3--|--3--------|--------6--|--------|
    G|-0--------------------------|--------2--|--------4--|-3------|
    D|----------------------------|-----0-----|--5h-4--4--|-4----4-|
    A|---------7-------0----------|-----------|-----------|--------|
    E|----------------------------|-----------|-----------|--------|
    
    E|-------6--|-----5--4--|-----3--2--|--7----|--3--|--------2-5-|
    B|-------5--|-----4--3--|-----2--3--|-------|--2--|------3---3-|
    G|-5h-4--4--|--4--------|--2--------|--7----|--2--|----2-----2-|
    D|----------|--------2--|--------0--|--5----|-----|--4-------4-|
    A|----------|-----------|-----------|-------|-----|------------|
    E|----------|-----------|-----------|-------|-----|------------|
    
    E|-------3-7--|----------10--|----------10--|----10---10---10-|
    B|-----3------|--------3-----|----------8---|--7----7----7----|
    G|---4-----7--|------2---7---|--------0-7---|-----------------|
    D|-5-------5--|----4---------|------0---9---|------------0----|
    A|------------|--5-------9---|----2---------|--0--------------|
    E|------------|--------------|--3-----------|-----------------|
    
    E|----10---10---10-|---9---9---9-|----9---9---9-|--10-------|
    B|--7----7----7----|-5---5---5---|--5---5---5---|-----------|
    G|-----------------|-0---0-------|--------------|--11-------|
    D|------------7----|-------------|--------------|--0-----4--|
    A|--9--------------|---------7---|----------0---|-----------|
    E|-----------------|-------------|--9---9-------|--------2--|
    
    E|-----------|-----------|---------|------9---|--10------|
    B|-----------|-----------|---------|------10--|--10------|
    G|-----------|-----------|---------|------9---|--11------|
    D|--5--6--7--|--8--9--6--|--7----7-|----------|--0-------|
    A|-----------|-----------|---------|-5----0---|----------|
    E|--3--4--5--|--6--7--4--|--5----5-|----------|----------|
    
    E|-----------|-----------|-----------|--------5-|
    B|-----3--3--|--3-----6--|-----3--3--|--3-------|
    G|--2--------|-----2-----|--2--------|-----2----|
    D|--3--------|-----3--3--|--3--------|-----3--3-|
    A|--5--------|-----5--5--|--5--------|-----5--5-|
    E|-----------|-----------|-----------|----------|
    
    E|----10-13-7-10-|----7---4-----|--------------|--------------|
    B|-0-------------|--9---6---3-6-|----3---------|--------------|
    G|---------------|--------------|--4-----4-----|--------------|
    D|-6-------------|--------------|------6---3-6-|----3---0-----|
    A|-8-------------|--------------|--------------|--5---2-----2-|
    E|-10------------|--------------|--------------|----------4---|
    
    E|----------|----------|-----------|-----------|-----5-8------|
    B|----------|----------|-----------|--------5--|--1------7-10-|
    G|--2-------|-------2--|-----2--2--|--2--------|--2-----------|
    D|--2--2--2-|-2--------|--2--------|-----2--2--|--4-----------|
    A|--3-------|----3--3--|--3--------|-----3--3--|--------------|
    E|----------|----------|-----------|-----------|--------------|
    
    E|---------------|------7-----|-------------|---------12-------|
    B|--4-7----------|-0--8-----8-|---5---------|------11-------11-|
    G|------5-8------|--------9---|-4-----4---0-|------------12----|
    D|----------7-10-|-5----------|-----5---2---|--8---------------|
    A|---------------|-7----------|-------------|--10--------------|
    E|---------------|------------|-------------|--12--------------|
    
    E|--------------|--------------|--------------|--------------|
    B|----8---5-----|--------------|--------------|--4-------0---|
    G|--9---5-----5-|----3---0-----|--------------|--------------|
    D|----------8---|--5---2-----2-|----5-4-5-4-2-|----------1---|
    A|--------------|----------3---|--1-----------|----2-1-2---2-|
    E|--------------|--------------|--------------|--------------|
    
    E|--------------|--------------|--0-------3---|----7-6-7---7-|
    B|--1-------2---|--3-------4---|----------5---|--7-------0---|
    G|--------------|----------2---|--0-----------|--8-----------|
    D|--2-------2---|--4-------4---|--------------|--------------|
    A|----2-1-2---2-|----2-1-2---2-|----2-1-2---2-|----------6---|
    E|--------------|--------------|--------------|--7-------7---|
    
    E|----7-6-7---7-|----7-6-7---7-|-----7-6-7---7-|----7-6-7-6-7-|
    B|--------------|--------------|-----------8---|--7-----------|
    G|--5-------6---|--7-------8---|--9------------|--------------|
    D|--------------|--------------|---------------|--------------|
    A|--7-------7---|--9-------9---|--10-------7---|--6-----------|
    E|--7-------7---|--7-------7---|--7--------7---|--7-----------|
    
    E|-8-5---0---|-8-5---0---|-3---------|-3---------|-------------|
    B|-----7---4-|-----7---4-|---5-------|---5-------|-0-----------|
    G|---------5-|---------5-|-----5-4-3-|-----5-4-3-|---0---0---0-|
    D|---------4-|---------4-|---------5-|---------5-|-----2-------|
    A|-----------|-----------|---------7-|---------7-|-2-------2---|
    E|-----------|-----------|-----------|-----------|-------------|
    
    E|-2-3-2-3-2-3-2-3-2-3-0-2-|-0-------|-----------|-----------|
    B|-------------------------|---------|-----------|-----------|
    G|---------2---------------|-0----0--|--1--2--3--|--4--5--3--|
    D|-------------------------|-2-------|-----------|-----------|
    A|-2---------------2-------|---------|-----------|-----------|
    E|-------------------------|------3--|--4--5--6--|--7--8--6--|
    
    E|---------|------11--|--12-------|-------9--|--10-------|
    B|-------0-|------10--|--8--------|-------8--|-----------|
    G|--4------|------11--|--9-----2--|-------9--|--10----0--|
    D|---------|-2----9---|-----------|--0----7--|--0--------|
    A|-------2-|----------|--------0--|-------0--|-----------|
    E|--7------|-0--------|--12-------|----------|--------3--|
    
    E|-------7--|--8-------|----------|----------|-----------|
    B|--1----6--|--5----4--|--5-------|----------|-----------|
    G|-------7--|--5-------|-----4--5-|-1--2-----|--0--------|
    D|-------5--|----------|----------|-------2--|-----------|
    A|--3-------|----------|----------|----------|-----3--3--|
    E|----------|--8-------|----------|----------|-----5--5--|
    
    E|--------2--|--3--------|-----------|----------|
    B|-----------|-----4--5--|-----------|----------|
    G|-----------|-----------|--4--5-----|--4-------|
    D|--4--------|-----------|--------5--|----------|
    A|--3--3--2--|--2--------|-----------|-----2--2-|
    E|--5--5--5--|--0--------|-----------|-----2--2-|
    
    E|----------|-----------|-----------|-----3--4--|--5-----3-|
    B|----------|-----------|-----------|-----5--6--|--5--5----|
    G|-2-----2--|--4-----0--|-----------|-----------|--------3-|
    D|----------|-----4-----|--1--2-----|--0--------|-----2----|
    A|-2--2-----|-----------|--------2--|-----------|--4-------|
    E|-2--2-----|-----------|-----------|-----------|----------|
    
    E|-2--------|-----------|----------|
    B|----3--2--|--3--2--3--|----------|
    G|-2--------|-----------|--2-------|
    D|-0--------|-----------|--4-------|
    A|----------|-----------|-----5--4-|
    E|----------|-----------|----------|
    
    E|-h-p-h-p-h-p-h-p-h---h--|----5--4--|--5--4--5--|--3-----6-|
    B|-^-^-^-^-^-^-^-^-^---^--|----------|-----------|----------|
    G|3-5-3-5-3-5-3-5-3-5-2-3-|-2--------|-----------|----------|
    D|0-----------------------|-4--------|-----------|-----5--4-|
    A|------------------------|-5--------|-----------|-----6--5-|
    E|------------------------|----------|-----------|----------|
    
    E|Трель-----|----------2-3-|--4-5-6-7-8-9-|--10-|
    B|--^-------|--3-4-5-6-----|--------------|-----|
    G|-6-7------|--------------|--------------|-----|
    D|-5--4--5--|--4-----------|--------------|-----|
    A|-6--5--6--|--5-----------|--------------|-----|
    E|----------|--------------|--------------|-----|
    

    Тональность:

    Нет текста!



    Назад
    Рекомендуем посмотреть другие песни исполнителя «Моцарт Вольфганг Амадей»:

    • Комментарии Facebook ()
    • Комментарии ВКонтакте



    Добавить в Избранное Браузера
    Сохранить здесь Очистить


    x

    0


    +
    -

    +
    -

    -

    Авторизация





    Зарегистрироваться

    M

    Дата и время

    • 14:36:20
       

    Социальные ссылки


    Наши приложения

    • Muzbank App Play Market
    • Muzbank Amazon App