MUZBANK



A Most Complete Bank Of Music Information

МУЗЫКАЛЬНО-ИНФОРМАЦИОННЫЙ БАНК

Поиск по сайту







    MMoloko • Sing It Back (аккорды и текст - chords & lyrics)


    498

    Print

    Видео «Sing It Back (Moloko)»

    Видео клипы к песне подбираются автоматически сайтом youtube. Возможны некоторые несоответствия клипов песне.

    ↑ Спрятать рекламу ↑



    Download



     
    
    
    MOLOKO - SING IT BACK
    Bass TABLATURE
    
    by FAB72 - enjoy it.
    f_luglio@yahoo.com
    
                                                                                   
    G||------------------|------------------|------------------|------------------|
    D||------------------|------------------|------------------|------------------|
    A||------------------|------------------|------------------|------------------|
    E||------------------|------------------|------------------|------------------|
    
                                                                                 
    ------------------|------------------|------------------|---------------------|
    ------------------|------------------|------------------|---------------------|
    ------------------|------------------|------------------|---------------0--1--|
    ------------------|------------------|------------------|-------------4-------|
    
    
                                                                                
    ------------------------|----------1-------3-----|----------4--3-----4--3--|
    --1-------1----3--1-----|------1--------1-----1--|------3---------3--------|
    ------1--------------1--|------------------------|--1----------------------|
    ------------------------|--4---------------------|-------------------------|
    
    
                                                                                
    -------------------------|------------------------|----------1-------3-----|
    --1-------1--3--4--3--1--|--1-------1-------1-----|------1--------1-----1--|
    ------1------------------|------1--------1-----1--|------------------------|
    -------------------------|------------------------|--4---------------------|
    
    
                                                                                    
    ----------3--4--3--------|------3---6--6--6--6-8-----|----------8--10----8-----|
    ------3------------4--3--|--1--------------------7-8-|----------------------8--|
    --1----------------------|---------------------------|--6----------------------|
    -------------------------|---------------------------|------6------------------|
    
    
                                                                               
    -------------3----1-----|----------3--4----3-----|------3---6--8-------6--|
    ----------6----------1--|------3--------------4--|--1---------------8-----|
    ------6-----------------|--1---------------------|------------------------|
    --4---------------------|------------------------|------------------------|
    
    
                                                                                
    ------3---8--10----8-----|-------------3----1-----|----------3--4----3-----|
    ----------------------8--|----------6----------1--|------3--------------4--|
    --6----------------------|------6-----------------|--1---------------------|
    -------------------------|--4---------------------|------------------------|
    
    
                                                                                
    ------3---6--8-------6--|------3---8--10----8-----|-------------3----1-----|
    --1---------------8-----|----------------------8--|----------6----------1--|
    ------------------------|--6----------------------|------6-----------------|
    ------------------------|-------------------------|--4---------------------|
    
    
                                                                                
    ----------3--4----3-----|------3---6--8-------6--|------3---8--10----8-----|
    ------3--------------4--|--1---------------8-----|----------------------8--|
    --1---------------------|------------------------|--6----------------------|
    ------------------------|------------------------|-------------------------|
    
    
                                                                               
    -------------3----1-----|----------3--4----3-----|------3---6--8-------6--|
    ----------6----------1--|------3--------------4--|--1---------------8-----|
    ------6-----------------|--1---------------------|------------------------|
    --4---------------------|------------------------|------------------------|
    
    
                                                                                
    ------3---8--10----8-----|-------------3----1-----|----------3--4----3-----|
    ----------------------8--|----------6----------1--|------3--------------4--|
    --6----------------------|------6-----------------|--1---------------------|
    -------------------------|--4---------------------|------------------------|
    
    
                                                                                
    ------3---6--8-------6--|------3---8--10----8-----|-------------3----1-----|
    --1---------------8-----|----------------------8--|----------6----------1--|
    ------------------------|--6----------------------|------6-----------------|
    ------------------------|-------------------------|--4---------------------|
    
    
                                                                                
    ----------3--4----3-----|------3---6--8-------6--|----------8--10----8-----|
    ------3--------------4--|--1---------------8-----|----------------------8--|
    --1---------------------|------------------------|--6----------------------|
    ------------------------|------------------------|------6------------------|
    
    
                                                                               
    -------------3----1-----|----------3--4----3-----|------3---6--8-------6--|
    ----------6----------1--|------3--------------4--|--1---------------8-----|
    ------6-----------------|--1---------------------|------------------------|
    --4---------------------|------------------------|------------------------|
    
    
                                                                                
    ------3---8--10----8-----|-------------3----1-----|----------3--4----3-----|
    ----------------------8--|----------6----------1--|------3--------------4--|
    --6----------------------|------6-----------------|--1---------------------|
    -------------------------|--4---------------------|------------------------|
    
    
                                                                                
    ------3---6--8-------6--|----------8--10----8-----|-------------3----1-----|
    --1---------------8-----|----------------------8--|----------6----------1--|
    ------------------------|--6----------------------|------6-----------------|
    ------------------------|------6------------------|--4---------------------|
    
    
                                                                                
    ----------3--4----3-----|------3---6--8-------6--|------3---8--10----8-----|
    ------3--------------4--|--1---------------8-----|----------------------8--|
    --1---------------------|------------------------|--6----------------------|
    ------------------------|------------------------|-------------------------|
    
    
                                                                               
    -------------3----1-----|----------3--4----3-----|------3---6--8-------6--|
    ----------6----------1--|------3--------------4--|--1---------------8-----|
    ------6-----------------|--1---------------------|------------------------|
    --4---------------------|------------------------|------------------------|
    
    
                                                                                
    ------3---8--10----8-----|-------------3----1-----|----------3--4----3-----|
    ----------------------8--|----------6----------1--|------3--------------4--|
    --6----------------------|------6-----------------|--1---------------------|
    -------------------------|--4---------------------|------------------------|
    
    
                                                                                
    ------3---6--8-------6--|------3---8--10----8-----|-------------3----1-----|
    --1---------------8-----|----------------------8--|----------6----------1--|
    ------------------------|--6----------------------|------6-----------------|
    ------------------------|-------------------------|--4---------------------|
    
    
                                                                                
    ----------3--4----3-----|------3---6--8-------6--|------3---8--10----8-----|
    ------3--------------4--|--1---------------8-----|----------------------8--|
    --1---------------------|------------------------|--6----------------------|
    ------------------------|------------------------|-------------------------|
    
    
                                                                               
    -------------3----1-----|----------3--4----3-----|------3---6--8-------6--|
    ----------6----------1--|------3--------------4--|--1---------------8-----|
    ------6-----------------|--1---------------------|------------------------|
    --4---------------------|------------------------|------------------------|
    
    
                                                                                
    ------3---8--10----8-----|-------------3----1-----|----------3--4----3-----|
    ----------------------8--|----------6----------1--|------3--------------4--|
    --6----------------------|------6-----------------|--1---------------------|
    -------------------------|--4---------------------|------------------------|
    
    
                                                                             
    ------3---6--8-------6--|-----------------------|-----------------------|
    --1---------------8-----|-----------------------|----------6------------|
    ------------------------|--6-------6------------|------6----------------|
    ------------------------|------6----------7--6--|--4--------------4--5--|
    
    
                                                                              
    ----------4-------4-----|---------------3--------|-----------------------|
    ------3--------3-----3--|--1-------1-------------|--1-------1------------|
    ------------------------|------4--------------1--|------1----------2--1--|
    --6---------------------|------------------4-----|-----------------------|
    
    
                                                                              
    ----------1------------|----------4-------4-----|---------------3--------|
    ------1----------------|------3--------3-----3--|--1-------1-------------|
    --------------------0--|--1---------------------|------4--------------1--|
    --4--------------4-----|------------------------|------------------4-----|
    
    
                                                                             
    -----------------------|----------1------------|----------4-------4-----|
    --1-------1------------|------1----------------|------3--------3-----3--|
    ------1----------2--1--|--------------------0--|--1---------------------|
    -----------------------|--4--------------4-----|------------------------|
    
    
                                                                             
    ---------------3--------|-----------------------|----------1------------|
    --1-------1-------------|--1-------1------------|------1----------------|
    ------4--------------1--|------1----------2--1--|--------------------0--|
    ------------------4-----|-----------------------|--4--------------4-----|
    
    
                                                                              
    ----------4-------4-----|---------------3--------|-----------------------|
    ------3--------3-----3--|--1-------1-------------|--1-------1------------|
    --1---------------------|------4--------------1--|------1----------2--1--|
    ------------------------|------------------4-----|-----------------------|
    
    
                                                                              
    ----------1------------|----------4-------4-----|---------------3--------|
    ------1----------------|------3--------3-----3--|--1-------1-------------|
    --------------------0--|--1---------------------|------4--------------1--|
    --4--------------4-----|------------------------|------------------4-----|
    
    
                                                                             
    -----------------------|----------1------------|----------4-------4-----|
    --1-------1------------|------1----------------|------3--------3-----3--|
    ------1----------2--1--|--------------------0--|--1---------------------|
    -----------------------|--4--------------4-----|------------------------|
    
    
                              
    ---------------3--------||
    --1-------1-------------||
    ------4--------------1--||
    ------------------4-----||
     

    Тональность:

    Нет текста!



    Назад
    Рекомендуем посмотреть другие песни исполнителя «Moloko»:

    • Комментарии Facebook ()
    • Комментарии ВКонтакте



    Добавить в Избранное Браузера
    Сохранить здесь Очистить


    x

    0


    +
    -

    +
    -

    -

    Авторизация





    Зарегистрироваться

    M

    Дата и время

    • 17:14:07
       

    Социальные ссылки


    Наши приложения

    • Muzbank App Play Market
    • Muzbank Amazon App