MUZBANK



A Most Complete Bank Of Music Information

МУЗЫКАЛЬНО-ИНФОРМАЦИОННЫЙ БАНК

Поиск по сайту







    MMonster Magnet • Atomic Clock (аккорды и текст - chords & lyrics)


    234

    Print

    Видео «Atomic Clock (Monster Magnet)»

    Видео клипы к песне подбираются автоматически сайтом youtube. Возможны некоторые несоответствия клипов песне.

    ↑ Спрятать рекламу ↑



    Download


     
    
    
    Tune down 1/2 step
    
    ^ =pull up gradually
    
    INTRO and VERSE:
    
    |------------------------|
    |------------------------|
    |------------------------|
    |--4--4--4-7-7-7--7---9^-|
    |--4--4--4-7-7-7--7---9^-|
    |--2--2--2-5-5-5--5---7^-|
    
    CHORUS:
    
    |------------------------------|
    |------------------------------|
    |------------------------------|
    |------------------------------|
    |----------------------------7-|
    |-9--9-9-7h9-9-7h9-9-7h9-9-9---|
    
    BRIDGE:
    
    |------------------|
    |------------------|
    |------------------|
    |--2--2--------2---|
    |--2--2--------2---|
    |--0--0--------0---|
    
    SOLO RIFF:
    
    |-------------------------------|
    |-------------------------------|
    |-------------------------------|
    |-------------------------------|
    |-----------------------------7-|
    |--9--9-9-7h9-9-7h9-9-7h9-9-9---|
    
    |--------------------------------|
    |--------------------------------|
    |--------------------------------|
    |--------------------------------|
    |-----------------------------5--|
    |--7--7-7-5h7-7-5h7-7-5h7-7-7----|
    
    
    klanhitman@rediffmail.com
     

    Тональность:

    Нет текста!



    Назад
    Рекомендуем посмотреть другие песни исполнителя «Monster Magnet»:

    • Комментарии Facebook ()
    • Комментарии ВКонтакте



    Добавить в Избранное Браузера
    Сохранить здесь Очистить


    x

    0


    +
    -

    +
    -

    -

    Авторизация





    Зарегистрироваться

    M

    Дата и время

    • 23:43:50
       

    Социальные ссылки


    Наши приложения

    • Muzbank App Play Market
    • Muzbank Amazon App