MUZBANK



A Most Complete Bank Of Music Information

МУЗЫКАЛЬНО-ИНФОРМАЦИОННЫЙ БАНК








    MMoore Gary • Ball And Chain (аккорды и текст - chords & lyrics)


    331

    Print

    Видео «Ball And Chain (Moore Gary)»

    Видео клипы к песне подбираются автоматически сайтом youtube. Возможны некоторые несоответствия клипов песне.

    ↑ Спрятать рекламу ↑






    E|------5-7----------------xx-x-xx-|
    A|----------5----7---------xx-x-xx-|
    D|------------5------------xx-x-xx-|
    G|-------------------------xx-x-xx-|
    B|-------------------------xx-x-xx-|
    E|-------------------------xx-x-xx-|
    
    E|------5-7------------------------------------------xx-x-xx-|
    A|----------5----7 5h7p5h7p5h7p5h7p5h7p5h7p5---------xx-x-xx-|
    D|------------5--------------------------------------xx-x-xx-|
    G|---------------------------------------------------xx-x-xx-|
    B|---------------------------------------------------xx-x-xx-|
    E|---------------------------------------------------xx-x-xx-|
    

    Тональность:

    Нашли ошибку?



    Назад
    Рекомендуем посмотреть другие песни исполнителя «Moore Gary»:

    • Комменты Fb ()
    • Комменты ВК



    Добавить в Избранное Браузера
    Сохранить здесь Очистить


    x

    0


    +
    -

    +
    -

    -

    Авторизация





    Зарегистрироваться

    M

    Дата и время

    • 19:30:24
       

    Социальные ссылки


    Наши приложения

    • Muzbank App Play Market
    • Muzbank Amazon App