MUZBANK



A Most Complete Bank Of Music Information

МУЗЫКАЛЬНО-ИНФОРМАЦИОННЫЙ БАНК

Поиск по сайту







    MMoore Gary • Crying In The Shadows (аккорды и текст - chords & lyrics)


    268

    Print

    Видео «Crying In The Shadows (Moore Gary)»

    Видео клипы к песне подбираются автоматически сайтом youtube. Возможны некоторые несоответствия клипов песне.

    ↑ Спрятать рекламу ↑



    Download


     
    
    
    Gary Moore ? Crying In The Shadow
    Tabbed by: Paul Ingebrigtsen
    Email: battie87@hotmail.com
    
    
    1. Solo:
    e-|------------------------------------------------------------------|
    B-|-11(12)------(12)-7-12-14-15-17-12vv-12-15-19-15-12-15-19-17------|
    G-|------------------------------------------------------------------|
    D-|------------------------------------------------------------------|
    A-|------------------------------------------------------------------|
    E-|------------------------------------------------------------------|
    
    
    e-|----15(17)-14-19-21-22-24-----------------------------------------|
    B-|-10---------------------------------------------------------------|
    G-|------------------------------------------------------------------|
    D-|------------------------------------------------------------------|
    A-|------------------------------------------------------------------|
    E-|------------------------------------------------------------------|
    
    Main Solo:
    e-|------------------------------------------------------------------|
    B-|----------------------------------------13(14)-15-17-19-20-19-----|
    G-|-11-14-9-7-6-7-6-4--4-6-7-9-7-6-9-7-6-7---------------------------|
    D-|------------------------------------------------------------------|
    A-|------------------------------------------------------------------|
    E-|------------------------------------------------------------------|
    
    
    e-|-------------------------------------------14-17------------------|
    B-|-19-17-15-17-15-14-17-15-14-12----15-14-12-------18(19)-18(19)----|
    G-|-------------------------------11---------------------------------|
    D-|------------------------------------------------------------------|
    A-|------------------------------------------------------------------|
    E-|------------------------------------------------------------------|
    
    
    e-|-------------------------14---------------------------------------|
    B-|-20-19-17-15-17-15-14-12------------------------------------------|
    G-|------------------------------------------------------------------|
    D-|----------------------------9-4-9-11-7-4-11-7?9p7h9-11p9h11-------|
    A-|------------------------------------------------------------------|
    E-|------------------------------------------------------------------|
    
    e-|---------------------------------------------17-13(14)-13(14)-----|
    B-|-------------------12-14-15-17-19-17-19-14-15---------------------|
    G-|------------11-14-------------------------------------------------|
    D-|12p11h12-14-------------------------------------------------------|
    A-|------------------------------------------------------------------|
    E-|------------------------------------------------------------------|
    
    
    e-|-14-12-10-12-14-17-19-14-19-21-14-21-22-24--------------------------|
    B-|--------------------------------------------------------------------|
    G-|--------------------------------------------------------------------|
    D-|--------------------------------------------------------------------|
    A-|--------------------------------------------------------------------|
    E-|--------------------------------------------------------------------|
     

    Тональность:

    Нет текста!



    Назад
    Рекомендуем посмотреть другие песни исполнителя «Moore Gary»:

    • Комментарии Facebook ()
    • Комментарии ВКонтакте



    Добавить в Избранное Браузера
    Сохранить здесь Очистить


    x

    0


    +
    -

    +
    -

    -

    Авторизация





    Зарегистрироваться

    M

    Дата и время

    • 23:17:49
       

    Социальные ссылки


    Наши приложения

    • Muzbank App Play Market
    • Muzbank Amazon App