MUZBANK



A Most Complete Bank Of Music Information

МУЗЫКАЛЬНО-ИНФОРМАЦИОННЫЙ БАНК

Поиск по сайту







    MMoore Gary • One Day (аккорды и текст - chords & lyrics)


    644

    Print

    Видео «One Day (Moore Gary)»

    Видео клипы к песне подбираются автоматически сайтом youtube. Возможны некоторые несоответствия клипов песне.

    ↑ Спрятать рекламу ↑



    Download



    Intro:
    e-|--------------------------------------------------
    B-|---10-12-12(13)---13-15-17-18-13-12-18-17-10-12----
    G-|-9-------------------------------------------------
    D-|--------------------------------------------------
    A-|--------------------------------------------------
    E-|--------------------------------------------------
    
    
    e-|------------10------------------------------------
    B-|-13-15-10-9----12(13)-13-15-17-18--13-12-18-17----
    G-|--------------------------------------------------
    D-|--------------------------------------------------
    A-|--------------------------------------------------
    E-|--------------------------------------------------
    
    
    e-|--------------------------------------------------
    B-|-10-12-13-15^-12^-10------------------------------
    G-|--------------------------------------------------
    D-|--------------------------------------------------
    A-|--------------------------------------------------
    E-|--------------------------------------------------
    
    1. Solo:
    e-|--------------------------------------------------
    B-|---10-12-12(13)---13-15-17-18-13-12-18-17-10-12----
    G-|-9-------------------------------------------------
    D-|--------------------------------------------------
    A-|--------------------------------------------------
    E-|--------------------------------------------------
    
    
    e-|---------------------------------------------------
    B-|-13-17-15-13-12-10---------------------------------
    G-|---------------------------------------------------
    D-|---------------------------------------------------
    A-|---------------------------------------------------
    E-|--------------------------------------------------
    
    Main Solo:
    e-|--------------------------------------------------
    B-|--------------------------------------------------
    G-|-14-17-19-19(21)-19-14-17-17(19)-17-16-0----------
    D-|-----------------------------------------10-12----
    A-|--------------------------------------------------
    E-|--------------------------------------------------
    
    
    e-|-------------------------------------------------- I dropped the next
    B-|-------------------------------------------------- because it was too
    G-|----------------14-14--14-12-9-7-5-2-17(19)-17-19- difficult. I jumped
    D-|-14h15p14-10-12----------------------------------- to that after the
    A-|-------------------------------------------------- difficult part.
    E-|--------------------------------------------------
    
    
    
    
    e-|--------------------------------------------------
    B-|---13-12-10-----12-10-9-10------------------------
    G-|-8-----------7------------------------------------
    D-|--------------------------------------------------
    A-|--------------------------------------------------
    E-|--------------------------------------------------
    
    
    
    Ending Solo:
    
    
    e-|--------------------------------------------------
    B-|---10-12-12(13)-13-15-17-18-12-13-15-15(17)-15(17)
    G-|-9------------------------------------------------
    D-|--------------------------------------------------
    A-|--------------------------------------------------
    E-|--------------------------------------------------
    
    
    e-|-----------------------------------------------------
    B-|----10-12-12(13)-13-15-17-18----20-18-16(17)-16-(17)-
    G-|--9--------------------------16----------------------
    D-|-----------------------------------------------------
    A-|-----------------------------------------------------
    E-|-----------------------------------------------------
    
    
    e-|--------------------------------------------------
    B-|---10-12(13)-12(13)-12(13)------------------------
    G-|-9------------------------------------------------
    D-|--------------------------------------------------
    A-|--------------------------------------------------
    E-|--------------------------------------------------
    

    Тональность:

    Нет текста!



    Назад
    Рекомендуем посмотреть другие песни исполнителя «Moore Gary»:

    • Комментарии Facebook ()
    • Комментарии ВКонтакте



    Добавить в Избранное Браузера
    Сохранить здесь Очистить


    x

    0


    +
    -

    +
    -

    -

    Авторизация





    Зарегистрироваться

    M

    Дата и время

    • 23:40:56
       

    Социальные ссылки


    Наши приложения

    • Muzbank App Play Market
    • Muzbank Amazon App