MUZBANK



A Most Complete Bank Of Music Information

МУЗЫКАЛЬНО-ИНФОРМАЦИОННЫЙ БАНК

Поиск по сайту







    MMoore Gary • Parisienne Walkways (аккорды и текст - chords & lyrics)


    1337

    Print

    Видео «Parisienne Walkways (Moore Gary)»

    Видео клипы к песне подбираются автоматически сайтом youtube. Возможны некоторые несоответствия клипов песне.

    ↑ Спрятать рекламу ↑



    Download


    Intro(вступление)
    (1)
    E|-----------------------------------------------------------|
    B|-----------17b-15--------------17-15b~~15b-----------------|
    G|-----------------17-16--14----------------17-16-14---------|
    D|--------------------------17-15b------------------17-15-14-|
    A|-12/-------------------------------------------------------|
    E|----12/-8/-------------------------------------------------|
    (2)
    E|---------------------------------------------------------|
    B|-13h15p13b-----------------------------------------------|
    G|----------14-16-17b-16-14-----------16h17p16~-16-14-13---|
    D|-------------------------17-15-14---------------------15-|
    A|---------------------------------17----------------------|
    E|---------------------------------------------------------|
    (3) intro ended!!!            [     к у п л е т     ]
    E|-----------------------------------------------------------|
    B|----------------------------------------Здесь можно играть-|
    G|--------------------------------------/-простую гамму------|
    D|-14-----------------------------------/--только------------|
    A|---17-15/-----12/---------------------/---------в----------|
    E|-----------------12/---8/-------------/-----------ноты !!!-|
     [продолжение после куплета]
    E|------------------------------------------------------------|
    B|-14-15-17-20b---20b--18b--18b/-12-13-15b-18b--18b--17b-17b/-|
    G|------------------------------------------------------------|
    D|------------------------------------------------------------|
    A|------------------------------------------------------------|
    E|------------------------------------------------------------|
    
    E|------------------------------------------------------|
    B|----12-13--17b--17b-15b-15b----------12--15b-15b~~~~~-|
    G|-14----------------------------13-14------------------|
    D|------------------------------------------------------|
    A|------------------------------------------------------|
    E|------------------------------------------------------|
                      Быстрого соло!
    
    E|-----------------------------------------------------------|
    B|-12-12-13-12-10-12-10--10----------------------------------|
    G|---------------------12--12-10-12-10--12-10--10------------|
    D|------------------------------------12-----12--12-10-12-10-|
    A|---в этом куске не уверен----------------------------------|
    E|-----------------------------------------------------------|
              [      к у п л е т      ]
    E|------------------------------------------|
    B|------------------------------------------|
    G|------------------------------[improvise]-|
    D|---10-------------------------------------|
    A|-12--12-10-12-----------------------------|
    E|------------------------------------------|
                  [ Эту ноту нужно тянуть примерно 31 секунду ]
    E|-----------------------------------------------------------|
    B|--[pause]---17bpbpbpbpbpbp~~~~~~~bpbpbpbpbpbpb~~~~bbbbbbbb-|
    G|-----------------------------------------------------------|
    D|----------[можно попытаться болтать струну-----------------|
    A|--------------вверх вниз!!!]-------------------------------|
    E|-----------------------------------------------------------|
    
    E|-------------------------------12-13-----------------------|
    B|--------------15b-------------------14-(13h14-14b-14b-15b)-|
    G|---------//----17-16-14--------------[В скобках Т.к. я-----|
    D|---------//------------17-15-----------не-уверен-в---------|
    A|---------//-------------------/-----правильности-подбора]--|
    E|---------//-------------------/----------------------------|
    
    E|-----------------------------------------------------------|
    B|-15~~-13---------15h17----------------------------12h13p13-|
    G|--------16-14---------17~~-14-16-17-16-14-12---------------|
    D|-------------17-15--------14---------------15h14-12--------|
    A|-----------------------------------------------------------|
    E|-----------------------------------------------------------|
    
    E|-----------------------------------------------------------|
    B|----------------12----------------5----------12------------|
    G|13-14------12h14--12-----------5h7-5----12h14--12----------|
    D|---------------------14pb~pb--------7p------------14/17/14-|
    A|-----------------------------------------------------------|
    E|-----------------------------------------------------------|
    
    E|-------------дальше идет непереводимая игра...!-|
    B|-----5------------------------------------------|
    G|-5h7--5------------[improvise like Gary Moore]--|
    D|-------7r---------------------------------------|
    A|------------------------------------------------|
    E|------------------------------------------------|
    

    Тональность:

    Нет текста!



    Назад
    Рекомендуем посмотреть другие песни исполнителя «Moore Gary»:

    • Комментарии Facebook ()
    • Комментарии ВКонтакте



    Добавить в Избранное Браузера
    Сохранить здесь Очистить


    x

    0


    +
    -

    +
    -

    -

    Авторизация





    Зарегистрироваться

    M

    Дата и время

    • 12:44:35
       

    Социальные ссылки


    Наши приложения

    • Muzbank App Play Market
    • Muzbank Amazon App