MUZBANK



A Most Complete Bank Of Music Information

МУЗЫКАЛЬНО-ИНФОРМАЦИОННЫЙ БАНК

Поиск по сайту







    MMoore Gary • The Prophet (аккорды и текст - chords & lyrics)


    515

    Print

    Видео «The Prophet (Moore Gary)»

    Видео клипы к песне подбираются автоматически сайтом youtube. Возможны некоторые несоответствия клипов песне.

    ↑ Спрятать рекламу ↑



    Download



    (0:33)				            slowly release
    E|---------------------------------------------------|
    B|-----10brb------10--8--8b------10--8--10--10b--8br-|
    G|---------------------------------------------------|
    D|-12--------12--------------12----------------------|
    A|---------------------------------------------------|
    E|---------------------------------------------------|
    
    E|-----------------------------------------------------------|
    B|-----13--11--11b------11--10--10b------10brb--11b--10b--8b-|
    G|-----------------------------------------------------------|
    D|-12---------------12---------------12----------------------|
    A|-----------------------------------------------------------|
    E|-----------------------------------------------------------|
    
    (1:15)					        slowly release
    E|-----------------------------------------------------------|
    B|-----15--13--15------15brb------16--15--15b--16b--15br--15-|
    G|-----------------------------------------------------------|
    D|-14--------------14---------14-----------------------------|
    A|-----------------------------------------------------------|
    E|-----------------------------------------------------------|
    
    E|-------------------------------------------------|
    B|-----13--11--13------10brb------10--8--8b--9b--8-|
    G|-------------------------------------------------|
    D|-12--------------12---------12-------------------|
    A|-------------------------------------------------|
    E|-------------------------------------------------|
    
    (1:53)
    
    pick scratch
    E|------------------------------------------------------|
    B|---------13br--13--11--11--13--15--16--15--13--11--13-|
    G|------------------------------------------------------|
    D|-12--12-----------------------------------------------|
    A|------------------------------------------------------|
    E|------------------------------------------------------|
    
    E|-------------------------------------------|
    B|---------11b--11--10--10--11--13--13b--13b-|
    G|-------------------------------------------|
    D|-12--12------------------------------------|
    A|-------------------------------------------|
    E|-------------------------------------------|
    
    				 slowly release
    E|---------------------------------------------|
    B|---------16b--16--15--15--15h16h18--16br--16-|
    G|-12--12--------------------------------------|
    D|---------------------------------------------|
    A|---------------------------------------------|
    E|---------------------------------------------|
    
    E|-------------------------|
    B|-15--13--13b--13--11--13-|
    G|-------------------------|
    D|-------------------------|
    A|-------------------------|
    E|-------------------------|
    
    (2:34)
    
    E|---------21b--20--18--18--20--22--22b--20br--18--20-|
    B|-15--15---------------------------------------------|
    G|----------------------------------------------------|
    D|----------------------------------------------------|
    A|----------------------------------------------------|
    E|----------------------------------------------------|
    
    E|---------18b--18--17--17--18--20--20b--20b--20b-|
    B|-15--15-----------------------------------------|
    G|------------------------------------------------|
    D|------------------------------------------------|
    A|------------------------------------------------|
    E|------------------------------------------------|
    
    			    slowly release
    E|---------23b--23--22--22--23--23br--23-|
    B|-15--15--------------------------------|
    G|---------------------------------------|
    D|---------------------------------------|
    A|---------------------------------------|
    E|---------------------------------------|
    
    E|---------22b--22--20--20--22--23--23--20b-|
    B|-16--16-----------------------------------|
    G|------------------------------------------|
    D|------------------------------------------|
    A|------------------------------------------|
    E|------------------------------------------|
    
    E|-------------20b--20--18--18--18--20--22--22b--20-|
    B|-15--15--15---------------------------------------|
    G|--------------------------------------------------|
    D|--------------------------------------------------|
    A|--------------------------------------------------|
    E|--------------------------------------------------|
    
    		   slowly slide down
    E|-18--17--18--17p15--17--17-|
    B|---------------------------|
    G|---------------------------|
    D|---------------------------|
    A|---------------------------|
    E|---------------------------|
    
    (3:38)
    
    E|-------------------------------------------------------------|
    B|----11-10-10b----10-8--8b------10--8--10--10b--8b-8-6b-8-----|
    G|---------------------------------------------------------6br-|
    D|-12-----------12-----------12--------------------------------|
    A|-------------------------------------------------------------|
    E|-------------------------------------------------------------|
    
    E|-------------------------------------------------|
    B|-----13--11--11b------11--10--10b------9brb--8br-|
    G|-------------------------------------------------|
    D|-12---------------12---------------12------------|
    A|-------------------------------------------------|
    E|-------------------------------------------------|
    
    (4:20)
    
    E|-22-18-17-17b------18-17-17b----18-17--17b------18--17--17b-|
    B|---------------17------------17-------------17--------------|
    G|------------------------------------------------------------|
    D|------------------------------------------------------------|
    A|------------------------------------------------------------|
    E|------------------------------------------------------------|
    
    E|-15b--13b--11b--11--13b--13t14--11--8b-|
    B|---------------------------------------|
    G|---------------------------------------|
    D|---------------------------------------|
    A|---------------------------------------|
    E|---------------------------------------|
    
    (5:04)
    
    E|-------------------------------------------------------------|
    B|-8b-8brb-8brb------------------------------8b--12b--13brbrbr-|
    G|--------------10brbrbr-8brbr-10brbrbr-8brb-------------------|
    D|-------------------------------------------------------------|
    A|-------------------------------------------------------------|
    E|-------------------------------------------------------------|
    
    
    
    E|-12b--12b--15b--20brb--20brbrb--17b--17b--17b-|
    B|----------------------------------------------|
    G|----------------------------------------------|
    D|----------------------------------------------|
    A|----------------------------------------------|
    E|----------------------------------------------|
    

    Тональность:

    Нет текста!



    Назад
    Рекомендуем посмотреть другие песни исполнителя «Moore Gary»:

    • Комментарии Facebook ()
    • Комментарии ВКонтакте



    Добавить в Избранное Браузера
    Сохранить здесь Очистить


    x

    0


    +
    -

    +
    -

    -

    Авторизация





    Зарегистрироваться

    M

    Дата и время

    • 15:54:17
       

    Социальные ссылки


    Наши приложения

    • Muzbank App Play Market
    • Muzbank Amazon App