MUZBANK



A Most Complete Bank Of Music Information

МУЗЫКАЛЬНО-ИНФОРМАЦИОННЫЙ БАНК

Поиск по сайту







    MMorbid Angel • Dominate (аккорды и текст - chords & lyrics)


    263

    Print

    Видео «Dominate (Morbid Angel)»

    Видео клипы к песне подбираются автоматически сайтом youtube. Возможны некоторые несоответствия клипов песне.

    ↑ Спрятать рекламу ↑



    Download



     
    
    
    MORBID ANGEL : DOMINATE
    from the album Domination
    Tuning: 7 string tuned down to A#,D#,G#,C#,F#,A#,D#
    Tabs by Mattrey 
    comments please to : emeth@angelfire.com
    
    NOTE: Only the used strings are shown
    
    
    
    Riff A
    
    5||-6--7--6-7-9-|
    6||-6--7--6-7-9-|
    7||-4--5--4-5-7-|
    pm  .  .  . .
    
    Riff B
    
    6||---------------------|
    7||-5544-5544-4444-7777-|
    slightly pm
    
    Riff C
    
    6||-7766-----------6666------6677-66---6666-|
    7||------6666-7777------7777--------77------|
    slightly pm
    
    Riff D
    
    5||-96-6/7-2-2-2-2-|-96-6/7-2-2-2-2-|-96-6/7-2-2-2-2-|-3/4---3/6-|
    6||-96-6/7-2-2-2-2-|-96-6/7-2-2-2-2-|-96-6/7-2-2-2-2-|-3/4---3/6-|
    7||-74-4/5-0-0-0-0-|-74-4/5-0-0-0-0-|-74-4/5-0-0-0-0-|-1/2---1/4-|
    pm          . . . .           . . . .           . . . .
    
    
    Riff E
    
    5||--------------------------------------------------|
    6||---8-9---8-9---8-11---8-10---8-9--------8888-8888-|
    7||-0-----0-----0------0------0-----0-0000-6666-6666-|
    there some variations in the rhytm at the ending of this riff listen to the cd
    
    Riff F
    
    5||--------------------------------------------------|
    6||---9-10---9-10---9-13---9-12---8-9--------8888-8888-|
    7||-0------0------0------0------0-----0-0000-6666-6666-|
    there some variations in the rhytm at the ending of this riff listen to the cd
    
    Riff G (rhyth under solo)
    
    5||-96-6/7---------|-----------------|-----------------|---------7-7-|
    6||-96-6/7---------|-----------------|-----------------|---------7-7-|
    7||-74-4/5-0-0-0-0-|-0-0-0-0-0-0-0-0-|-0-0-0-0-0-0-0-0-|-0-0-0-0-5-5-|
    
    
    song strucure
    A 4 times
    B 12 times
    C 2 times
    B 12 times
    C 4 times
    D 4 times
    E 2 times
    D 4 times
    E 2 times
    F 1 time
    E 1 time
    G 4 times
    A 4 times
    B 12 times
    C 4 times
    
    solo will follow soon
     

    Тональность:

    Нет текста!



    Назад
    Рекомендуем посмотреть другие песни исполнителя «Morbid Angel»:

    • Комментарии Facebook ()
    • Комментарии ВКонтакте



    Добавить в Избранное Браузера
    Сохранить здесь Очистить


    x

    0


    +
    -

    +
    -

    -

    Авторизация





    Зарегистрироваться

    M

    Дата и время

    • 11:22:04
       

    Социальные ссылки


    Наши приложения

    • Muzbank App Play Market
    • Muzbank Amazon App