MUZBANK



A Most Complete Bank Of Music Information

МУЗЫКАЛЬНО-ИНФОРМАЦИОННЫЙ БАНК

Поиск по сайту







    MMorbid Angel • Where The Slime Live (аккорды и текст - chords & lyrics)


    231

    Print

    Видео «Where The Slime Live (Morbid Angel)»

    Видео клипы к песне подбираются автоматически сайтом youtube. Возможны некоторые несоответствия клипов песне.

    ↑ Спрятать рекламу ↑



    Download


     
    
    
    where the slime live                               
    
    all my tabs are made on Guitar Pro 3, so is this one...
    so:
    	r = bend and release (some 1/4 and some full)
    	*|= go to |*
    	2x= go back 2 times
    
    some parts are played in different tempos
    
    Rythm-Guitar
                                                             
    D||--------------------------|-------------------------||
    A||--------------------------|-------------------------||
    F||*-------------------------|------------------------*||
    C||*-------------------------|-----------------3r-----*||
    G||---2~-------1~------------|--2~-------1~------------||
    D||------3--2-------2--1--2--|-----3--2-----0----------||
    
    
                                                         
    -------------------------||-------------------------|
    -------------------------||-------------------------|
    -----------------4r-----*||-------------------------|
    ------------------------*||-------------------------|
    --2~-------1~----2r------||--2~-------1~----2-------|
    -----3--2-----0----------||-----3--2-----0-----1r---|
    
    
                                                       
    --------------------------------------------------|
    --------------------------------------------------|
    --------------------------------------------------|
    -----------------5--4-----4-----4--4-----5--5--5--|
    --3-----3--7/-2--3--2-----2-----2--2-----3--3--3--|
    --1--0--1--5/-0--------0-----0--------0-----------|
    
    
                                                       
    --------------------------------------------------|
    --------------------------------------------------|
    --------------------------------------------------|
    -----------------5--4-----4/-5--5--5--5--5--------|
    --3-----3--7/-2--3--2-----2/-3--3--3--3--3-----2r-|
    --1--0--1--5/-0--------0--------------------0-----|
    
    
                                                    
    -----------------------------------------------|
    -----------------------------------------------|
    -----------------------------------------------|
    -----------------------------------------------|
    ----------1r---------2r---------1~----------2r-|
    ----3--2-------2--1-------3--2-----0--1~-0-----|
    
    
                                                    
    -----------------------------------------------|
    -----------------------------------------------|
    -----------------------------------------------|
    -----------------------------------------------|
    ----------1r---------2r---------1~----------2r-|
    ----3--2-------2--1-------3--2-----0--1~-0-----|
    
    
                                                    
    -----------------------------------------------|
    -----------------------------------------------|
    -----------------------------------------------|
    -----------------------------------------------|
    ----------1r---------2r---------1~----------2r-|
    ----3--2-------2--1-------3--2-----0--1~-0-----|
    
    
                                                   
    ----------------------------------------------|
    ----------------------------------------------|
    ----------------------------------------------|
    --------------------------------3-------------|
    ----------1r---------2r---------1----5--4-----|
    ----3--2-------2--1-------3--2-------3--2--0--|
    
    
                                                          
    |----------------------------------------------------|
    |----------------------------------------------------|
    |*---------------------------------------------------|
    |*---------------------------------------------------|
    |---3--------3--3--4--------2--3--3h2----2-----------|
    |---1--0--0--1--1--2--0--0------------3-----3--2--0--|
    
    
                                                         
    ---------------------------------------------------||
    ---------------------------------------------------||
    --------------------------------------------------*||
    --------------------------4--5--5/4----4----------*||
    --3--------3--3--4--------2--3--3/2-5--2--5----4---||
    --1--0--0--1--1--2--0--0------------3-----3----2---||
    
    
                                                       
    --------------------------------------------------|
    --------------------------------------------------|
    --------------------------------------------------|
    --------------------------4--5--5/4----4----------|
    --3--------3--3--4--------2--3--3/2-5--2--5----2r-|
    --1--0--0--1--1--2--0--0------------3-----3-------|
    
    
                                                     
    ------------------------------------------------|
    ------------------------------------------------|
    ------------------------------------------------|
    ---------------------4--4--------3~-------------|
    ----------1r---------2--2--5--4--1~----------2r-|
    ----3--2-------2--1--------3--2-----0--1~-0-----|
    
    
                                                    
    -----------------------------------------------|
    -----------------------------------------------|
    -----------------------------------------------|
    ---------------------4--4--------3-------------|
    ----------1r---------2--2--5--4--1-----2-------|
    ----3--2-------2--1--------3--2-----0-----1r---|
    
    
                                                       
    --------------------------------------------------|
    --------------------------------------------------|
    --------------------------------------------------|
    -----------------5--4-----4-----4--4-----5--5--5--|
    --3-----3--7/-2--3--2-----2-----2--2-----3--3--3--|
    --1--0--1--5/-0--------0-----0--------0-----------|
    
    
                                                       
    --------------------------------------------------|
    --------------------------------------------------|
    --------------------------------------------------|
    -----------------5--4-----4/-5--5--5--5--5--------|
    --3-----3--7/-2--3--2-----2/-3--3--3--3--3-----2r-|
    --1--0--1--5/-0--------0--------------------0-----|
    
    
                                                    
    -----------------------------------------------|
    -----------------------------------------------|
    -----------------------------------------------|
    -----------------------------------------------|
    ----------1r---------2r---------1~----------2r-|
    ----3--2-------2--1-------3--2-----0--1~-0-----|
    
    
                                                    
    -----------------------------------------------|
    -----------------------------------------------|
    -----------------------------------------------|
    -----------------------------------------------|
    ----------1r---------2r---------1~----------2r-|
    ----3--2-------2--1-------3--2-----0--1~-0-----|
    
    
                                                    
    -----------------------------------------------|
    -----------------------------------------------|
    -----------------------------------------------|
    -----------------------------------------------|
    ----------1r---------2r---------1~----------2r-|
    ----3--2-------2--1-------3--2-----0--1~-0-----|
    
    
                                                   
    ----------------------------------------------|
    ----------------------------------------------|
    ----------------------------------------------|
    --------------------------------3-------------|
    ----------1r---------2r---------1----5--4-----|
    ----3--2-------2--1-------3--2-------3--2--0--|
    
    
                                                          
    |----------------------------------------------------|
    |----------------------------------------------------|
    |*---------------------------------------------------|
    |*---------------------------------------------------|
    |---3--------3--3--4--------2--3--3h2----2-----------|
    |---1--0--0--1--1--2--0--0------------3-----3--2--0--|
    
    
                                                         
    ---------------------------------------------------||
    ---------------------------------------------------||
    --------------------------------------------------*||
    --------------------------4--5--5/4----4----------*||
    --3--------3--3--4--------2--3--3/2-5--2--5----4---||
    --1--0--0--1--1--2--0--0------------3-----3----2---||
    
    
                                                           
    ------------------------------------------------------|
    ------------------------------------------------------|
    ------------------------------------------------------|
    --------------------------4--5--5/4----4--------------|
    --3--------3--3--4--------2--3--3/2-5--2--5------4----|
    --1--0--0--1--1--2--0--0------------3-----3------2----|
    
    
                                    3x                               2x
    |-------------------------------||-------------------------------||
    |-------------------------------||-------------------------------||
    |*-----------------------------*||*-----------------------------*||
    |*-----------------------------*||*-----------------------5--4--*||
    |------2--------1--------3--2---||---3--3--2--6--5--------3--2---||
    |---1-----3--2-----2-2-2--------||---1--1-----4--3--0-0-0--------||
    
    
                                                              2x
    -------------------------------||-------------------------||
    -------------------------------||-------------------------||
    -------------------------------||*-----------------------*||
    -----------------------5-------||*-----------------------*||
    --3--3--2--6--5--------3---5-4-||---2--------2-2-2----5---||
    --1--1-----4--3--0-0-0---0-3-2-||---0--------0-0-0----3---||
    
    
                                                        2x
    -----------------------||---------------------------||
    -----------------------||---------------------------||
    -----------------------||*-------------------------*||
    -----------------------||*---------4--3------3-----*||
    --2--------2-2-2----4--||---5-5-4--2--1------1--4---||
    --0--------0-0-0----2--||---3-3-2---------------2---||
    
    
                                                         2x                        
    --------------------------||-------------------------||-----------------------|
    --------------------------||-------------------------||-----------------------|
    --------------------------||*-----------------------*||-----------------------|
    ---------4--3------3-3-3--||*-----------------------*||-----------------------|
    --5-5-4--2--1------1-1-1--||---2--------2-2-2----5---||--2--------2-2-2----4--|
    --3-3-2-------------------||---0--------0-0-0----3---||--0--------0-0-0----2--|
    
    
                                2x                           
    |---------------------------||--------------------------|
    |---------------------------||--------------------------|
    |*-------------------------*||--------------------------|
    |*---------4--3------3-----*||---------4--3------3-3-3--|
    |---5-5-4--2--1------1--4---||--5-5-4--2--1------1-1-1--|
    |---3-3-2---------------2---||--3-3-2-------------------|
    
    
                              3x                                                    
    |-------------------------||---------------------------------------------------|
    |-------------------------||---------------------------------------------------|
    |*-----------------------*||*--------------------------------------------------|
    |*-----------------------*||*--------------------------------------------------|
    |---2--------2-2-2----5---||---2------9--9/10/9--------2------9--9/10/7--------|
    |---0--------0-0-0----3---||---0------7--7/8/-7--0--0--0------7--7/8/-5--0--0--|
    
    
                                                     5x
    -------------------------------------------------||
    -------------------------------------------------||
    ------------------------------------------------*||
    --------------------------7--5--4--5------------*||
    --2------9--9/10/9--------5--3--2--3----5----5---||
    --0------7--7/8/-7--0--0----------------3----3---||
    
    
                                                                                 6x
    ------------------------------------------------||---------------------------||
    ------------------------------------------------||---------------------------||
    ------------------------------------------------||*-------------------------*||
    --------------------------7--5--4--5------------||*---------4--3------3-----*||
    --2------9--9/10/9--------5--3--2--3----5----4--||---5-5-4--2--1------1--4---||
    --0------7--7/8/-7--0--0----------------3----2--||---3-3-2---------------2---||
    
    
                               
    --------------------------|
    --------------------------|
    --------------------------|
    ---------4--3-------------|
    --5-5-4--2--1----5--4-----|
    --3-3-2----------3--2--0--|
    
    
                                                          
    |----------------------------------------------------|
    |----------------------------------------------------|
    |*---------------------------------------------------|
    |*---------------------------------------------------|
    |---3--------3--3--4--------2--3--3h2----2-----------|
    |---1--0--0--1--1--2--0--0------------3-----3--2--0--|
    
    
                                                         
    ---------------------------------------------------||
    ---------------------------------------------------||
    --------------------------------------------------*||
    --------------------------4--5--5/4----4----------*||
    --3--------3--3--4--------2--3--3/2-5--2--5----4---||
    --1--0--0--1--1--2--0--0------------3-----3----2---||
    
    
                                                       
    --------------------------------------------------|
    --------------------------------------------------|
    --------------------------------------------------|
    --------------------------4--5--5/4----4----------|
    --3--------3--3--4--------2--3--3/2-5--2--5----2r-|
    --1--0--0--1--1--2--0--0------------3-----3-------|
    
    
                                                     
    ------------------------------------------------|
    ------------------------------------------------|
    ------------------------------------------------|
    ---------------------4--4--------3~-------------|
    ----------1r---------2--2--5--4--1~----------2r-|
    ----3--2-------2--1--------3--2-----0--1~-0-----|
    
    
                                                  
    --------------------------------------------||
    --------------------------------------------||
    --------------------------------------------||
    ---------------------4--4--------3----------||
    ----------1r---------2--2--5--4--1----------||
    ----3--2-------2--1--------3--2-------------||
     

    Тональность:

    Нет текста!



    Назад
    Рекомендуем посмотреть другие песни исполнителя «Morbid Angel»:

    • Комментарии Facebook ()
    • Комментарии ВКонтакте



    Добавить в Избранное Браузера
    Сохранить здесь Очистить


    x

    0


    +
    -

    +
    -

    -

    Авторизация





    Зарегистрироваться

    M

    Дата и время

    • 11:03:46
       

    Социальные ссылки


    Наши приложения

    • Muzbank App Play Market
    • Muzbank Amazon App