MUZBANK



A Most Complete Bank Of Music Information

МУЗЫКАЛЬНО-ИНФОРМАЦИОННЫЙ БАНК

Поиск по сайту







    MMorrissey • Irish Blood English Heart (аккорды и текст - chords & lyrics)


    272

    Print

    Видео «Irish Blood English Heart (Morrissey)»

    Видео клипы к песне подбираются автоматически сайтом youtube. Возможны некоторые несоответствия клипов песне.

    ↑ Спрятать рекламу ↑



    Download


     
    
    
    ------------------------------------------------------------
    	    Irish Blood, English Heart - Morrissey
    ------------------------------------------------------------
    Album: You Are The Quarry 2004
    Tabbed by: Jon Hulton
    Email: juanhultonious@hotmail.com
    
    Tuning: Standard
    
    Intro/Verses (palm mute throughout verses)
    e|----------------------------------------------|
    B|----------------------------------------------|
    G|5xx5xx5xx5xx5xx7xx5xx7xx5xx4xx5xx4xx5xx4xx5xx4|
    D|7xx5xx7xx5xx5xx5xx5xx5xx3xx3xx3xx3xx3xx3xx3xx3|
    A|----------------------------------------------|
    E|----------------------------------------------|
    
    PITCH BEND
    e|--------------------|
    B|--5-----------------|
    G|--7b9---------------|
    D|--------------------|
    A|--------------------|
    E|--------------------|
    
    
    Chorus (first 3 power chords strummed fast 8 times  -  F G F
            and similarly when F G A)
    
    e|---------------------------0-----------------------------------------|
    B|---------------------------1-----------------------------------------|
    G|-10--12--10---9999--7777---2(let ring) 10--12--14--16161616--17171717|
    D|--x---x---x---xxxx--xxxx---2------------x---x---x---x-x-x-x---x-x-x-x|
    A|--8--10---8---7777--5555---0------0 2-3/8 -10--12--14141414--15151515|
    E|---------------------------------------------------------------------|
    
    e|--0-----------20-19-18-----0-----------20-19-18-|
    B|--1-----------20-19-18-----1-----------20-19-18-|
    G|--2(let ring)-17-16-15-----2(let ring)-17-16-15-|
    D|--2------------------------2--------------------|
    A|--0------------------------0--------------------|
    E|------------------------------------------------|
    
    BACK TO VERSE RIFF
    
    Chorus same as above
    
    Riff leading into pitch bend
    e|---------------------------|
    B|--------------------5------|
    G|--------------------7b9----|
    D|----------3-5-3------------|
    A|------3-5------------------|
    E|--3 5----------------------|
    
    Chorus chords continue thru until end of the song 
    all chords etc from here are labelled above except 
    for this at the very end.
    
    (repeat a few times and then slide down to 0 to finish)
    e|--17--------20-19-18-----|
    B|-----17-----20-19-18-----|
    G|--------14--17-16-15-----|
    D|-------------------------|
    A|-------------------------|
    E|-------------------------|
    
    Any questions or comments email me
    
    John Kerry for us president dont let the thief and 
    blair compromise our integrity any longer
    
    =====================================================
    | /  slide up
    |   slide down
    | h  hammer-on
    | p  pull-off
    | ~  vibrato
    | +  harmonic
    | x  Mute note
    =====================================================
     

    Тональность:

    Нет текста!



    Назад

    • Комментарии Facebook ()
    • Комментарии ВКонтакте



    Добавить в Избранное Браузера
    Сохранить здесь Очистить


    x

    0


    +
    -

    +
    -

    -

    Авторизация





    Зарегистрироваться

    M

    Дата и время

    • 06:11:03
       

    Социальные ссылки


    Наши приложения

    • Muzbank App Play Market
    • Muzbank Amazon App