MUZBANK



A Most Complete Bank Of Music Information

МУЗЫКАЛЬНО-ИНФОРМАЦИОННЫЙ БАНК

Поиск по сайту







    MMotley Crue • Misunderstood (аккорды и текст - chords & lyrics)


    289

    Print

    Видео «Misunderstood (Motley Crue)»

    Видео клипы к песне подбираются автоматически сайтом youtube. Возможны некоторые несоответствия клипов песне.

    ↑ Спрятать рекламу ↑



    Download



     
    
    
    MOTLEY CRUE MISUNDERSTOOD
     tabbed by: 
                             
    
    tuning: C G C F
    
     Intro|-----|
    |-----|
    |-----|
    |-----|
    
    
     1st Verse
    |-----|
    |-----|
    |-----|
    |-----|
    
    
     Chorus
    
    |-----------|-----------|-----------|------------|
    |-----------|-----------|-----------|------------|
    |---0-------|-----------|---0-------|------------|
    |--------5--|---0----0--|--------5--|---0----0---||-----------|-----------|-----------|------||
    |-----------|-----------|-----------|------||
    |---0-------|-----------|-0---------|------||
    |--------5--|---0----0--|------5----|-0----||
    
    
     Interlude
    
    |-----------------------|------------------|
    |-----------------------|------------------|
    |-5--(5)-3h5-3--(3)-3h5-|-2---2-0--(0)-2s3-|
    |-----------------------|------------------||-----------------------|------------|
    |--------5s7--------5s7-|------------|
    |-5--(5)-----3--(3)-----|-2---2-0----|
    |-----------------------|------------|
    
    
     
                          PM|                            PM|
    |-------------|----------------|-------------|-----------------|
    |-------------|----------------|-------------|-----------------|
    |-5--5---3-3--|-2--2--x-x-0-0--|-5--5---3-3--|-2--2--x-x-0-0---|
    |-------------|----------------|-------------|-----------------|                      PM|                            PM|
    |-------------|----------------|-------------|-----------------||
    |-------------|----------------|-------------|-----------------||
    |-5--5---3-3--|-2--2--x-x-0-0--|-5--5---3-3--|-2--2--x-x-0-0---||
    |-------------|----------------|-------------|-----------------||
    
    
     Chorus
    
    |--------------|--------------------|------------------------|----------------|
    |----7------5--|--------------------|------------------------|----------------|
    |--------------|-5--5--(5)-5-5-(5)--|----7s9s7-----------5h7-|-5--5--5-5-5-5--|
    |-7-----5-5----|--------------------|-7--------5-5-5-5h7-----|----------------|
    
    
      
    |---------------|-------------------|-----------|------||
    |---------------|-------------------|-----------|------||
    |---------------|-5--5--(5)-5-5-5-5-|-----------|------||
    |-7--7--5-5-5-5-|-------------------|-7----5----|-0----||
    
    
     2nd Verse
    
                                
    |----------|-------------------------------|-----------------------------|
    |----------|-------------------------------|--------------------0--------|
    |----------|-------------------------0-2-3-|-(3)--3-2-(2)-0-2-3---2------|
    |--------0-|-(0)-0-3p0-3p0---0-3-0-3-------|------------------------3-0--|
    
    
                            
    |-------------------------------|
    |-------------------------------|
    |-------------------------0-2-3-|
    |-(0)-0-3p0-3p0---0-3-0-3-------|
    
    
                                   
    |------------------------------|--------------------------------|
    |------5---------------0-------|--------------------------------|
    |-(3)----3-2-(2)-0-2-3---2-----|-------------------------0-2-3--|
    |--------------------------3-0-|-(0)-0-3p0-3p0---0-3-0-3--------|
    
    
          
    |----------------------------|-------------------------------|
    |--------------------0-------|-------------------------------|
    |-(3)--3-2-(2)-0-2-3---2-----|-------------------------0-2-3-|
    |------------------------3-0-|-(0)-0-3p0-3p0---0-3-0-3-------|
    
    
             
    |-------------------------------||
    |------5---------------0--------||
    |-(3)----3-2-(2)-0-2-3---2------||
    |--------------------------3-0--||
    
    
     3rd Verse
    
    |---------------------|-------------------------------|
    |---------------------|-------5---------------0-------|
    |-------------------3-|-(3)-3---3-2-(2)-0-2-3---2-----|
    |-(0)-0-3p0-3p0-------|---------------------------3-0-||---------------------|----------------------------------|
    |---------------------|-------5---------------0----------|
    |-------------------3-|-(3)-3---3-2-(2)-0-2-3---2--------|
    |-(0)-0-3p0-3p0-------|---------------------------3-0----||------------------------|-----------0---------------------|
    |------------------------|-------0h2---------------0-------|
    |----------------------3-|-(3)-3-------2-(2)-0-2-3---2-----|
    |-(0)-0-3p0-3p0--0--0----|-----------------------------3-0-||------------------------|-------------------------------||
    |------------------------|-------5---------------0-------||
    |----------------------3-|-(3)-3---3-2-(2)-0-2-3---2-----||
    |-(0)-0-3p0-3p0--0--0----|---------------------------3-0-||
    
    
       Chorus
      
    ||------------|-----------------|-----------|---------------------------|
    ||o-----------|-----------------|-----------|------------------0--------|
    ||o-5----3----|-----------------|-5----3----|------------0-2-3---2------|
    ||------------|-5-5-5--(5)--5-5-|-----------|-5-5-5--(5)-----------3-0--|
    
    
                                                    
    
    |-----------------|-----------------|----------|---------------||
    |-----------------|-----------------|----------|---------------||
    |-5-5-5-5-3-3-3-3-|-----------------|-1--------|-3------(3)----||
    |-----------------|-5-5-5-5-5-5-5-5-|----------|------------0--||
    
    
                  
    |-------------------------------|----------------------------|
    |-------------------------------|--------------------0-------|
    |-------------------------0-2-3-|-(3)--3-2-(2)-0-2-3---2-----|
    |-(0)-0-3p0-3p0---0-3-0-3-------|------------------------3-0-|
    
    
                           
    |-----------------------------|----------------------------||
    |-----------------------------|------------------0---------||
    |-------------------------0-2-|-3--3-2-(2)-0-2-3---2-------||
    |-(0)-0-3p0-3p0---0-3-0-3-----|----------------------3-0---||
    
    
              
    |-------------------|-----------------------------|
    |-------------------|-----5---------------0-------|
    |-----------------3-|-3-3---3-2-(2)-0-2-3---2-----|
    |-0-0-3p0-3p0-------|-------------------------3-0-|
    
    
    |-------------------|--------------------------------|
    |-------------------|-----5---------------0----------|
    |-----------------3-|-3-3---3-2-(2)-0-2-3---2--------|
    |-0-0-3p0-3p0-------|-------------------------3-0----|
    
    
                     
    |------------------------|-----------0---------------------|
    |------------------------|-------0h2---------------0-------|
    |----------------------3-|-(3)-3-------2-(2)-0-2-3---2-----|
    |-(0)-0-3p0-3p0--0--0----|-----------------------------3-0-|
    
    
                    
    |------------------------|--------------------------------||
    |------------------------|-------5---------------0-------o||
    |----------------------3-|-(3)-3---3-2-(2)-0-2-3---2-----o||
    |-(0)-0-3p0-3p0--0--0----|---------------------------3-0--||
    
    
                      Guitar Solo
      
    
    |---------------||--------------------|-----------------------------|
    |---------------||--------------------|-----------------------------|
    |-3-------(3)---||--------------------|----------0-2-3-(3)-2-0------|
    |-------------0-||-(0)-0-3p0-3p0------|--0-3-0-3---------------3-0--|
    
    
    |--------------------|----------------------------|------------------------|
    |--------------------|----------------------------|------------------------|
    |--------------------|----------0-2-3-(3)-2-0-----|------------------------|
    |-(0)-0-3p0-3p0------|--0-3-0-3---------------3-0-|-(0)-0-3p0-3p0--0--0--0-|
    
    
    |-------------------------------|------------------------|
    |-------------------------------|------------------------|
    |-------------0-2-3-(3)-2-0-----|------------------------|
    |-(0)-0-3-0-3---------------3-0-|-(0)-0-3p0-3p0--0--0--0-|
    
    
    |--------------------------------||
    |--------------------------------||
    |-------------0-2-3-(3)-2-0------||
    |-(0)-0-3-0-3---------------3-0--|||-----------------|-----------------|-----------------|
    |-----------------|-----------------|-----------------|
    |-----------------|-----------------|-----------------|
    |-0-0-0-0-2-2-2-2-|-3-3-3-3-5-5-5-5-|-0-0-0-0-2-2-2-2-||-----------------|---------------------|---------------------||
    |-----------------|---------------------|---------------------||
    |-----------------|---------------------|---------------------||
    |-3-3-3-3-5-5-5-5-|-5-5-(5)-5-(5)-5-5-5-|-5-5-(5)-5-(5)-5-5-5-||
    
    
     Chorus
     
    |-----------------|-----------------|
    |-----------------|-----------------|
    |-5-5-5-5-3-3-3-3-|-----------------|
    |-----------------|-5-5-5-5-5-5-5-5-|
    
    
     
    |-----------------|---------------------------|
    |-----------------|-----------------0---------|
    |-5-5-5-5-3-3-3-3-|-----------0-2-3---2-------|
    |-----------------|-5-5-5-5-5-----------3-0---|
    
    
    |-----------------|-----------------|------|
    |-----------------|-----------------|------|
    |-5-5-5-5-3-3-3-3-|-----------------|-1----|
    |-----------------|-5-5-5-5-5-5-5-5-|------|
    
    
                
    
    |----------|----------|--------||
    |----------|----------|--------||
    |-3--------|-5--------|-(5)----||
    |----------|-0--------|-(0)----||
    
    
     Outro
    
    
    |---------*|
    |---------*|
    |---------*|
    |---------*|
     

    Тональность:

    Нет текста!



    Назад
    Рекомендуем посмотреть другие песни исполнителя «Motley Crue»:

    • Комментарии Facebook ()
    • Комментарии ВКонтакте



    Добавить в Избранное Браузера
    Сохранить здесь Очистить


    x

    0


    +
    -

    +
    -

    -

    Авторизация





    Зарегистрироваться

    M

    Дата и время

    • 05:30:55
       

    Социальные ссылки


    Наши приложения

    • Muzbank App Play Market
    • Muzbank Amazon App