MUZBANK



A Most Complete Bank Of Music Information

МУЗЫКАЛЬНО-ИНФОРМАЦИОННЫЙ БАНК

Поиск по сайту







    MMotley Crue • Power To The Music (аккорды и текст - chords & lyrics)


    304

    Print

    Видео «Power To The Music (Motley Crue)»

    Видео клипы к песне подбираются автоматически сайтом youtube. Возможны некоторые несоответствия клипов песне.

    ↑ Спрятать рекламу ↑



    Download


     
    
    
    Song: Power to the Music
    Artist: Motley Crue
    Album: Motley Crue (1994)
    As tabbed by Joe Muggah
    
    Dropped D and tuned down a step
    
    Intro
    d-----------------------------------------------------------
    A-----------------------------------------------------------
    F-----------------------------------------------------------
    C--3p0------------0-3p0------------0-3p0------------0-3p0---
    G--3p0-------3^---0-3p0-----0-5^---0-3p0-------3^---0-3p0---
    C--3p0--0m-5------0-3p0--0m--------0-3p0--0m-5------0-3p0---
    
    (continued)
    d-----------------------------------------------------------
    A-----------------------------------------------------------
    F-----------------------------------------------------------
    C--0-3p0--6m-5m-3m-5m-3---3p0------------0-3p0--------------
    G--0-3p0--6m-5m-3m-5m-3---3p0-------3^---0-3p0-----0-5^-----
    C--0-3p0--6m-5m-3m-5m-3---3p0--0m-5------0-3p0--0m----------
    
    (continued)
    d-----------------------------------------------------------
    A--------------------------6-------------------------------
    F--------------------------5-------------------------------
    C--0-3p0------------0-3p0-------3p0------------0-3p0--------
    G--0-3p0-------3^---0-3p0-------3p0-------3^---0-3p0--------
    C--0-3p0--0m-5------0-3p0-------3p0--0m-5------0-3p0--0m----
    
    (continued)
    d-----------------------------------------------------------
    A-----------------------------------------------------------
    F-----------------------------------------------------------
    C--------0-3p0------------0-3p0--6m-5m-3m-5m-3m-3m--3-------
    G--0-5^--0-3p0-------3^---0-3p0--6m-5m-3m-5m-3m-3m--3-------
    C--------0-3p0--0m-5------0-3p0--6m-5m-3m-5m-3m-3m--3-------
    
    Verse 1
    d-----------------------------------------------------------
    A-----------------------------------------------------------
    F--------5-------------------------5------------------------
    C--3p0---3--3p0--6m-5m-0m-3--3p0---3--3p0--6m-5m-0m-3m-5m-3-
    G--3p0---3--3p0--6m-5m-0m-3--3p0---3--3p0--6m-5m-0m-3m-5m-3-
    C--3p0---3--3p0--6m-5m-0m-3--3p0---3--3p0--6m-5m-0m-3m-5m-3-
    
    Verse 2 (played twice)
    d-----------------------------------------------------------
    A-----------------------------------------------------------
    F--------5--------------------------------------------------
    C--3p0---3--3p0---6m-5m-0m-3m-5m-3--------------------------
    G--3p0---3--3p0---6m-5m-0m-3m-5m-3--------------------------
    C--3p0---3--3p0---6m-5m-0m-3m-5m-3--------------------------
    
    Chorus 1
    d-----------------------------------------------------------
    A-----------------------------------------------------------
    F-----------------------------------------------------------
    C--3p0------------0-3p0------------0-3p0------------0-3p0---
    G--3p0-------3^---0-3p0-----0-5^---0-3p0-------3^---0-3p0---
    C--3p0--0m-5------0-3p0--0m--------0-3p0--0m-5------0-3p0---
    
    (continued)
    d-----------------------------------------------------------
    A--6-------------------------------------------------------
    F--5-------------------------------------------------------
    C--------3p0------------0-3p0------------0-3p0--------------
    G--------3p0-------3^---0-3p0-----0-5^---0-3p0-------3^-----
    C--------3p0--0m-5------0-3p0--0m--------0-3p0--0m-5--------
    
    (continued)
    d-----------------------------------------------------------
    A-----------------------------------------------------------
    F-----------------------------------------------------------
    C--0m-6m-5m-0m-3m-5m-3m-0----------------------------------
    G--0m-6m-5m-0m-3m-5m-3m-0----------------------------------
    C--0m-6m-5m-0m-3m-5m-3m-0----------------------------------
    
    Chorus 2
    d-----------------------------------------------------------
    A-----------------------------------------------------------
    F-----------------------------------------------------------
    C--3p0------------0-3p0------------0-3p0------------0-3p0---
    G--3p0-------3^---0-3p0-----0-5^---0-3p0-------3^---0-3p0---
    C--3p0--0m-5------0-3p0--0m--------0-3p0--0m-5------0-3p0---
    
    (continued)
    d-----------------------------------------------------------
    A--6-------------------------------------------------------
    F--5-------------------------------------------------------
    C--------3p0------------0-3p0------------0-3p0--------------
    G--------3p0-------3^---0-3p0-----0-5^---0-3p0-------3^-----
    C--------3p0--0m-5------0-3p0--0m--------0-3p0--0m-5--------
    
    (continued)
    d-----------------------------------------------------------
    A-----------------------------------------------------------
    F-----------------------------------------------------------
    C--0-3p0--6m-5m-3m-5m-3m------------------------------------
    G--0-3p0--6m-5m-3m-5m-3m------------------------------------
    C--0-3p0--6m-5m-3m-5m-3m------------------------------------
    
    Riff 1 (Guitar 2, played twice) 
    d--------0-----0------------0-------------------------------
    A-----------6-----------------6-----------------------------
    F-----7-----------7-------7---------------------------------
    C-----------------------7-----------------------------------
    G--5------------------5-------------------------------------
    C--0--------------------------------------------------------
    
    Bridge
    d---|-----2-------2-------2-----------------------2---------
    A---|-----3-------3-------3-----------------------3---------
    F---|-----2-------2-------2-----------------------2---------
    C-0-|--0m---0m-0m---0m-0m----6m-5m-0m-3m-5m-3--0m---0m-0m---
    G-0-|--0m---0m-0m---0m-0m----6m-5m-0m-3m-5m-3--0m---0m-0m---
    C-0-|--0m---0m-0m---0m-0m----6m-5m-0m-3m-5m-3--0m---0m-0m---
    
    (continued)
    d--2-------2------------------------------------------------
    A--3-------3------------------------------------------------
    F--2-------2-----------5------------------------------------
    C----0m-0m----6m-5m-0m-3------------------------------------
    G----0m-0m----6m-5m-0m-3------------------------------------
    C----0m-0m----6m-5m-0m-3------------------------------------
    
    Solo 1 (Harmonica arranged for guitar)
    d--15h19p15^--------------------/1716^---17--16------------
    A--------------15v----13-------------------------17-15v-----
    F-------------------------14v----------------------------14-
    C-----------------------------------------------------------
    G-----------------------------------------------------------
    C-----------------------------------------------------------
    
    Solo 2 (with wah)
    d-----------------------------------------------------------
    A--13--13--12--12----------13--13--15--15-------13--13--12--
    F--14--14--12--12--10------14--14--14--14-------14--14--12--
    C---------------------12v------------------15v--------------
    G-----------------------------------------------------------
    C-----------------------------------------------------------
    
    (continued)
    d------------------------------13^--------------------------
    A--12----------13--13--15--15-------------------------------
    F--12--10------14--14--14--14-------------------------------
    C---------12v-----------------------------------------------
    G-----------------------------------------------------------
    C-----------------------------------------------------------
    
    Solo 3 
    d--/17^---------------------------13p12----15p12----13p12--
    A-----------------------13-----12--------13-------13--------
    F----------14h16p14-14--14--14------------------------------
    C-----------------------------------------------------------
    G-----------------------------------------------------------
    C-----------------------------------------------------------
    
    (continued)
    d-----15p12-----13p12p10-12p10p8-10p8p7-8p7p5--12-13-12-13--
    A--13-------13----------------------------------------------
    F-----------------------------------------------------------
    C-----------------------------------------------------------
    G-----------------------------------------------------------
    C-----------------------------------------------------------
    
    (continued)
    d--12-10-12-10-8-10-----------------------------------------
    A--------------------12h13p12p10h12-8p10h10-----------------
    F-------------------------------------------10p9-9h10p9p7h10
    C-----------------------------------------------------------
    G-----------------------------------------------------------
    C-----------------------------------------------------------
    
    (continued)
    d-----------------------------------------------------------
    A-----------------------------------------------------------
    F--9h10p9---------------------------------------------------
    C---------10h12--10/1210--9h10p9---------------------------
    G---------------------------------10h12---------------------
    C-----------------------------------------------------------
    
    Bridge 2
    d-----------------------------------------------------------
    A-----------------------------------------------------------
    F-----------------------------------------------------------
    C--0---6m-5m-0m-3m--5--0---6m-5m-0m-3m-5m-3m--0---6m-5m-0m--
    G--0---6m-5m-0m-3m--5--0---6m-5m-0m-3m-5m-3m--0---6m-5m-0m--
    C--0---6m-5m-0m-3m--5--0---6m-5m-0m-3m-5m-3m--0---6m-5m-0m--
    
    (continued)
    d-----------------------------------------------------------
    A-----------------------------------------------------------
    F-----------------------------------------------------------
    C--3m-5m-3m--0----------------------------------------------
    G--3m-5m-3m--0--(let ring)----------------------------------
    C--3m-5m-3m--0----------------------------------------------
    
    Verse 3
    d-----------------------------------------------------------
    A-----------------------------------------------------------
    F---------------------------------------5-------------------
    C--3p0----------------------------------3--3p0--------------
    G--3p0----------------------------------3--3p0--------------
    C--3p0-0m-0m-0m-0m-0m-0m-0m-0m-0m-0m-0m-3--3p0--0m-0m-0m-0m-
    
    (continued)
    d-----------------------------------------------------------
    A-----------------------------------------------------------
    F-----------------------------------------------------------
    C------------------------6m-5m-0m--3------------------------
    G------------------------6m-5m-0m--3------------------------
    C--0m-0m-0m-0m-0m-0m-0m--6m-5m-0m--3--0m-0m-0m-0m-0m-0m-0m--
    
    (continued)
    d-----------------------------------------------------------
    A-----------------------------------------------------------
    F---------------5-------------------------------------------
    C---------------3----6m-5m-0m-3m-5m--3----------------------
    G---------------3----6m-5m-0m-3m-5m--3----------------------
    C--0m-0m-0m-0m--3----6m-5m-0m-3m-5m--3----------------------
    
    Fill 1 (harmonica)            Fill 2
    d--16^--17--17-16----17------|------------------------------
    A-----------------15----15---|------------------------------
    F----------------------------|------------------------------
    C----------------------------|--6m-5m-0m-3m-5--5------------
    G----------------------------|--6m-5m-0m-3m-5--5------------
    C----------------------------|--6m-5m-0m-3m-5--5------------
    
    Riff 2
    d----------0-1-0-------------0-1------------0---------0-----
    A------3---------3------3-------------------5---------5-----
    F----2---2------------2---2-------------5---5-5-----5-5-----
    C-------------------0-----------------3---3-3-----3---3-----
    G-----------------------------------------------------------
    C--0--------------------------------3-----------------------
    
    (continued)
    d----------0---0------------0------------0-1-0--------------
    A------------6----------------6------3---------3-----3------
    F------7---------7------7----------2---2-----------2---2----
    C----7---7------------7---7---------------------------------
    G-----------------------------------------------------------
    C--5----------------5------------0---------------0-------3^-
    
    Outro
    d-----------------------------------------------------------
    A--13--13--12--12----------13--13--15--15----------13--13---
    F--14--14--12--12--10------14--14--14--14----------14--14---
    C---------------------12v------------------10/12v-----------
    G-----------------------------------------------------------
    C-----------------------------------------------------------
    
    (continued)
    d----------------------------------13^----------------------
    A--12--12----------13--13--15--15---------------------------
    F--12--12--10------14--14--14--14---------------------------
    C-------------12v-------------------------------------------
    G-----------------------------------------------------------
    C-----------------------------------------------------------
    
    
    Intro
    Verse 1
    Verse 2
    Chorus 1
    Verse 2
    Verse 1
    Bridge
    Chorus 2
    Chorus 1, Riff 1
    Bridge
    Bridge 1, Solo 1
    Bridge 1, Solo 2
    Bridge 1, Solo 3
    Bridge 2
    Chorus 1 (without the last few notes)
    Chorus 1
    Verse 3
    Chorus 2
    Fill 1
    Chorus 2, Riff 2
    Fill 2
    Chorus 2, Riff 2
    Chorus 2, Riff 2, Outro
     

    Тональность:

    Нет текста!



    Назад
    Рекомендуем посмотреть другие песни исполнителя «Motley Crue»:

    • Комментарии Facebook ()
    • Комментарии ВКонтакте



    Добавить в Избранное Браузера
    Сохранить здесь Очистить


    x

    0


    +
    -

    +
    -

    -

    Авторизация





    Зарегистрироваться

    M

    Дата и время

    • 07:21:21
       

    Социальные ссылки


    Наши приложения

    • Muzbank App Play Market
    • Muzbank Amazon App