MUZBANK



A Most Complete Bank Of Music Information

МУЗЫКАЛЬНО-ИНФОРМАЦИОННЫЙ БАНК

Поиск по сайту







    MMotley Crue • Til Death Do Us Part (аккорды и текст - chords & lyrics)


    224

    Print

    Видео «Til Death Do Us Part (Motley Crue)»

    Видео клипы к песне подбираются автоматически сайтом youtube. Возможны некоторые несоответствия клипов песне.

    ↑ Спрятать рекламу ↑



    Download


     
    
    
    TIL DEATH DO US PART
    Motley crue                        
    Tabber: 
    
    
    tuning (D G C F)
    
     Intro
     
     
    |---------|---------|-----|
    |---------|---------|-----|
    |---------|---------|-----|
    |---------|---------|-----||----------------------------|
    |----8-10-10s12-(12)-10-8----|
    |-10----------------------10-|
    |----------------------------|
    
    
                                             
    |-14h15p14h15p14h15p14h15p14h15p14h15p14h15p14h15p|=14h15p14h15p14s12-(12)----|
    |-------------------------------------------------|---------------------------|
    |-------------------------------------------------|---------------------------|
    |-------------------------------------------------|---------------------------||---------------------------|---------------------||
    |----8-10-10s12-(12)-10-8-7-|----8-10-12-(12)----||
    |-10------------------------|-10------10-(10)----||
    |---------------------------|---------------------||
    
    
                                                   1.          2.
    
    ||-----------------|---------|----------------|----------||------------------||
    ||o----------------|---------|----------------|---------o||------------------||
    ||o----------------|---------|----------------|---------o||------------1-----||
    ||--3------(3)-5s3-|---------|-3------(3)-5s3-|----------||------1-2-3---3-1-||
    
    
     Verse
    
    |----------------|---------|----------------|-----|
    |----------------|---------|----------------|-----|
    |----------------|---------|----------------|-----|
    |-3------(3)-5s3-|---------|-3------(3)-5s3-|-----||----------------|---------|----------------|-------------------|
    |----------------|---------|----------------|-------------------|
    |----------------|---------|----------------|------------1------|
    |-3------(3)-5s3-|---------|-3------(3)-5s3-|------1-2-3---3-1--|
    
    
      
    
    |-----------------|-----------------|-----------------|----------------------|
    |-----------------|-----------------|-----------------|----------------------|
    |-----------------|-----------------|-----------------|---------1-1-1-3------|
    |-3-3-3-3-3-3-3-3-|-3-3-3-3-3-3-3-3-|-3-3-3-3-3-3-3-3-|-3-3-3-3---------3-1--|
    
    
      
    |-----------------|-----------------|-----------------|--------------------||
    |-----------------|-----------------|-----------------|--------------------||
    |-----------------|-----------------|-----------------|--1--1--1-------1-1-||
    |-3-3-3-3-3-3-3-3-|-3-3-3-3-3-3-3-3-|-3-3-3-3-3-3-3-3-|----------1-2-3-----||
    
    
     Pre Chorus
      
    |---------------------|-----------------|-----------------|---------------|
    |---------------------|-----------------|-----------------|---------------|
    |-3-3-3-3-3-3-----1-1-|-3-3-3-3-3-3-3-3-|-1-1-1-1-1-1-1-1-|--3--3-(3)----|
    |-------------1-3-----|-----------------|-----------------|---------------|
    
    
      
    |-----------------|-----------------|-----------------|----------------||
    |-----------------|-----------------|-----------------|----------------||
    |-----------------|-----------------|-----------------|---------1--0---||
    |-3-3-3-3-3-3-3-3-|-3-3-3-3-3-3-3-3-|-3-3-3-3-3-3-3-3-|-3-3-3-3--------||
    
    
     Chorus
     
     
    |----------------|--------------------|-----------------|------------------|
    |-----5-(5)--3---|--------------------|-----/5-(5)--3---|-----/5-(5)--3----|
    |--------------5-|-3b5=====(3)r=(3)-1-|-1-------------5-|-0-------------5--|
    |-3--------------|--------------------|-----------------|------------------|
    
    
                         
    |----------------|--------------------|
    |-----5-(5)--3---|--------------------|
    |--------------5-|-3b5=====(3)r=(3)-1-|
    |-3--------------|--------------------|
    
    
         
               
    |-----------------|-------|------------------||
    |-----/5-(5)--3---|-------|------------------||
    |-1-------------5-|-------|------------------||
    |-----------------|-5---5-|-(5)b6------(5)---||
    
    
     2nd Verse
    
    |----------------|---------|----------------|-----|
    |----------------|---------|----------------|-----|
    |----------------|---------|----------------|-----|
    |-3------(3)-5s3-|---------|-3------(3)-5s3-|-----|
    
    
                                                  
     
    |----------------|-----------|----------------|-------------------||
    |----------------|-----------|----------------|-------------------||
    |----------------|-----------|----------------|------------1------||
    |-3------(3)-5s3-|---3------|-3------(3)-5s3-|------1-2-3---3-1--||
    
    
                       Intrelude
      
    
    |----------------||----------|----------|----------|------|
    |-----5-(5)------||----------|----------|----------|------|
    |-0----------3-1-||----------|----------|----------|------|
    |----------------||-3--------|-3--------|-3--------|-3----||-------------|-------------|-------------|------------||
    |-------------|-1-----------|-2-----------|-3----------||
    |-------------|-------------|-------------|------------||
    |-3-3-3-3-----|---3-3-3-----|---3-3-3-----|---3-3------||
    
    
     Guitar Solo
     
    |-----------------|-----------------|-----------------|----------------|
    |-----------------|-----------------|-----------------|----------------|
    |-5-5-5-5-5-5-5-5-|-5-5-5-5-5-5-5-5-|-5-5-5-5-5-5-5-5-|-5-5-5-5--------|
    |-----------------|-----------------|-----------------|---------1--0---|
    
    
      
    |-----------------|-----------------|-----------------|----------------|
    |-----------------|-----------------|-----------------|----------------|
    |-5-5-5-5-5-5-5-5-|-5-5-5-5-5-5-5-5-|-5-5-5-5-5-5-5-5-|-5-5-5-5-1--0---|
    |-----------------|-----------------|-----------------|----------------|
    
    
     
    |----------------|--------------------|-----------------|------------------|
    |-----5-(5)--3---|--------------------|-----/5-(5)--3---|-----/5-(5)--3----|
    |--------------5-|-3b5=====(3)r=(3)-1-|-1-------------5-|-0-------------5--|
    |-3--------------|--------------------|-----------------|------------------|
    
    
                                                           
    |----------------|--------------------|-----------------|------------------||
    |-----5-(5)--3---|--------------------|-----/5-(5)--3---|-----/5-(5)--3----||
    |--------------5-|-3b5=====(3)r=(3)-1-|-1-------------5-|-0-------------5--||
    |-3--------------|--------------------|-----------------|------------------||
    
    
      
     
              ~~~
    |-----------------|------------|
    |-----/5-(5)--3---|------------|
    |-1-------------5-|-0----1--0--|
    |-----------------|------------|
    
    
       Outro
      
    ||------------------|-----------------------------|
    ||o-----------------|-----------------------------|
    ||o-----------------|----------3b4==(3)r(3)p1-----|
    ||--3-3-3-3-3-3-3-3-|-3-3-3-3-----------------3p1-|
    
    
     
    |-----------------|---------------|-----------------|
    |-----------------|---------------|-----------------|
    |-----------------|---------1--0--|-----------------|
    |-3-3-3-3-3-3-3-3-|-3-3-3-3-------|-3-3-3-3-3-3-3-3-|
    
    
     
                                                                      3x
    |-----------------------------|-----------------|-----------------||
    |-----------------------------|-----------------|----------------o||
    |----------3b4==(3)r(3)p1-----|-----------------|---------1--0---o||
    |-3-3-3-3-----------------3p1-|-3-3-3-3-3-3-3-3-|-3-3-3-3---------||
     

    Тональность:

    Нет текста!



    Назад
    Рекомендуем посмотреть другие песни исполнителя «Motley Crue»:

    • Комментарии Facebook ()
    • Комментарии ВКонтакте



    Добавить в Избранное Браузера
    Сохранить здесь Очистить


    x

    0


    +
    -

    +
    -

    -

    Авторизация





    Зарегистрироваться

    M

    Дата и время

    • 21:02:42
       

    Социальные ссылки


    Наши приложения

    • Muzbank App Play Market
    • Muzbank Amazon App