MUZBANK



A Most Complete Bank Of Music Information

МУЗЫКАЛЬНО-ИНФОРМАЦИОННЫЙ БАНК

Поиск по сайту







    MMotorhead • Asylum Choir (аккорды и текст - chords & lyrics)


    262

    Print

    Видео «Asylum Choir (Motorhead)»

    Видео клипы к песне подбираются автоматически сайтом youtube. Возможны некоторые несоответствия клипов песне.

    ↑ Спрятать рекламу ↑



    Download


    Tune down to Eb.
    
    Main Riff
    e|------------------------------------|
    B|------------------------------------|
    3|------------------------------------|
    4|---9--7-9---------5-----7-9---------|
    5|---7--5-7-050575------7-5-7-0505750-|
    6|-00--0------------------------------|
    
    Verse
    1|-------------------------------|
    2|-------------------------------|
    3|-------------------------------|
    4|---9--9--7--9--9----9--9-7-----|
    5|---7--7--5--7--7----7--7-5-----|
    6|-00--0--0--0------00--0--------|
    
    Chorus
    1|----------------------------------------------|
    2|----------------------------------------------|
    3|-------2----------2----------2----------2-----|
    4|-----2---2------2---2------2---2------2---2---|
    5|--0--------0----------------------------------|
    6|-------------3--------3-2--------2-3--------3-|
    
    Fill
    1|---------------|
    2|---------------|
    3|-7^75----------|
    4|-----75--------|
    5|-------757-----|
    6|---------5-----|
    
    Bridge
    1|---------------|
    2|---------------|
    3|---------------|
    4|-9-99-99-97777-|
    5|-7-77-77-75555-|
    6|---------------|
    

    Тональность:

    Нет текста!



    Назад
    Рекомендуем посмотреть другие песни исполнителя «Motorhead»:

    • Комментарии Facebook ()
    • Комментарии ВКонтакте



    Добавить в Избранное Браузера
    Сохранить здесь Очистить


    x

    0


    +
    -

    +
    -

    -

    Авторизация





    Зарегистрироваться

    M

    Дата и время

    • 16:35:22
       

    Социальные ссылки


    Наши приложения

    • Muzbank App Play Market
    • Muzbank Amazon App