MUZBANK



A Most Complete Bank Of Music Information

МУЗЫКАЛЬНО-ИНФОРМАЦИОННЫЙ БАНК








    MMotorhead • Capricorn (аккорды и текст - chords & lyrics)


    557

    Print

    Видео «Capricorn (Motorhead)»

    Видео клипы к песне подбираются автоматически сайтом youtube. Возможны некоторые несоответствия клипов песне.

    ↑ Спрятать рекламу ↑



    Download


    Tune down to Eb.
    
    Intro Riff (x4)
    Play this using your neck pickup. with the volume on the guitar turned down,
    then crank it up after 4th repetition.
    E|-------|
    B|-14-12-|
    G|-14-12-|
    D|-------|
    A|-------|
    E|-------|
    
    Main/Chorus Riff
    E|-------------------|
    B|-------------------|
    G|-------------------|
    D|-14-12-------12-11-|
    A|-12-10-------10-9--|
    E|-------------------|
    
    Verse Fill 1 Fill 2 Fill 3
    E|---------------------|--------------|---------|----------------|
    B|---------------------|--------------|---------|----------------|
    G|---2---------2-------|--------------|---------|----------------|
    D|---2---------2-------|-/7-9-9p7--7--|-9-7--7~-|-9-7--9^9^7--9⁄-|
    A|-5-0-------5-0-------|----------9---|-----9---|-----9----------|
    E|-3---------3---------|--------------|---------|----------------|
    . .
    Fills 1 & 2 are over the 1st Verse. Fill 3 is over the 2nd Verse.
    
    Pre-Chorus
    E|---------------------|
    B|---------------------|
    G|---------------------|
    D|-9-9-9-9-9-9-9-9-----|
    A|-9-9-9-9-9-9-9-9-----|
    E|-7-7-7-7-7-7-7-7-etc-|
    
    Over the Pre-Chorus, a sort of arpeggio is played on a B chord (xx9877).
    
    This is very approximately what is played,
    although it seems to vary slightly each time.
    E|------7-------------7-------|
    B|--------------------------7-|
    G|----8-------------8---------|
    D|-/9------------/9-------9---|
    A|----------------------------|
    E|----------------------------|
    

    Тональность:

    Нашли ошибку?



    Назад
    Рекомендуем посмотреть другие песни исполнителя «Motorhead»:

    • Комменты Fb ()
    • Комменты ВК



    Добавить в Избранное Браузера
    Сохранить здесь Очистить


    x

    0


    +
    -

    +
    -

    -

    Авторизация





    Зарегистрироваться

    M

    Дата и время

    • 03:55:57
       

    Социальные ссылки


    Наши приложения

    • Muzbank App Play Market
    • Muzbank Amazon App