MUZBANK



A Most Complete Bank Of Music Information

МУЗЫКАЛЬНО-ИНФОРМАЦИОННЫЙ БАНК

Поиск по сайту







    MMotorhead • Dance (аккорды и текст - chords & lyrics)


    214

    Print

    Видео «Dance (Motorhead)»

    Видео клипы к песне подбираются автоматически сайтом youtube. Возможны некоторые несоответствия клипов песне.

    ↑ Спрятать рекламу ↑



    Download



     
    
    
    Artist: Motorhead
    Song: Dance
    Album: Ace of Spades
    Tabbed by: Menno Roymans (the doctor)
    
    Tuning: Eb
    
    
    Riff A
    
    Gb
    -----------------------------|
    -----------------------------|
    -----------------3-----------|make raw sound
    --5~p3h5p3h5p3---3-----------|
    ---------------5-------------|
    3----------------------------|
    
    
    ----------------------|
    ----------------------|
    ----------------------|
    --5~p3h5p3h5p3--------|
    ---------------5------|
    3----------------6----|
    
    Riff B
    
    Cb
    --------------------------|
    --------------------------|
    --------------------------|
    --------------------------|
    1010-1212-1313-1212-------|
    8-8--8-8--8-8--8-8--------|
    
    
    Riff C
    
    Eb
    -------------------------|
    -------------------------|
    -------------------------|
    2------------------------|
    2------------------------|
    0------------------------|
    
    
    Then First Solo
    
    Then Riff A-B-C scheme
    
    Then Second Solo
    
    Then end with Riff D to fade
    
    
    Riff D
    
    Gb
    --------------|
    --------------|
    ----------3---|
    ----------3---|
    555555555-----|
    333333333-----|
    
    
    Thats it, for comments mail to mennodeman@hotmail.com
     

    Тональность:

    Нет текста!



    Назад
    Рекомендуем посмотреть другие песни исполнителя «Motorhead»:

    • Комментарии Facebook ()
    • Комментарии ВКонтакте



    Добавить в Избранное Браузера
    Сохранить здесь Очистить


    x

    0


    +
    -

    +
    -

    -

    Авторизация





    Зарегистрироваться

    M

    Дата и время

    • 19:40:11
       

    Социальные ссылки


    Наши приложения

    • Muzbank App Play Market
    • Muzbank Amazon App