MUZBANK



A Most Complete Bank Of Music Information

МУЗЫКАЛЬНО-ИНФОРМАЦИОННЫЙ БАНК

Поиск по сайту







    MMotorhead • Dead Men Tell No Lies (аккорды и текст - chords & lyrics)


    180

    Print

    Видео «Dead Men Tell No Lies (Motorhead)»

    Видео клипы к песне подбираются автоматически сайтом youtube. Возможны некоторые несоответствия клипов песне.

    ↑ Спрятать рекламу ↑



    Download



     
    
    
    MOTORHEAD - Dead Men Tell No Tales
    
    Main Riff
    3|---------------------------|
    4|-4-7-6--6-79--4-7-6-79-----|
    5|-2-5-4--4-57--2-5-4-57-----|
    6|---------------------------|
    
    While the lead guitar plays:
    
    1|-17^(19)------17^(19)------|
    
    Verse
    e|------------------------------|
    B|------------------------------|
    G|------------------------------|
    D|-4--7-6-7-4--7-6-7-4--7-6-79--|
    A|-2--5-4-5-2--5-4-5-2--5-4-57--|
    E|------------------------------|
    
    Chorus
    e|------------------------------------------------------------------|
    B|------------------------------------------------------------------|
    G|------------------------------------------------------------------|
    D|-55555555555555555555555555555555222222222222222222222222---------|
    A|-3333333333333333333333333333333300000000000000000000000055555555-|
    E|---------------------------------------------------------33333333-|
    
    -while the solo you play the main riff twice
    -Chorus
    -Main riff twice
    
    Fill at the end over main riff
    
    e|--------------------|
    B|-12------12---------|
    G|-14b(16)-14b(16)----|
    D|--------------------|
    A|--------------------|
    E|--------------------|
    
    Coda
    e|--------------------|
    B|--------------------|
    G|-9-------4----------|
    D|-9---7---4----------|
    A|-7---7---2----------|
    E|-----5--------------|
     

    Тональность:

    Нет текста!



    Назад
    Рекомендуем посмотреть другие песни исполнителя «Motorhead»:

    • Комментарии Facebook ()
    • Комментарии ВКонтакте



    Добавить в Избранное Браузера
    Сохранить здесь Очистить


    x

    0


    +
    -

    +
    -

    -

    Авторизация





    Зарегистрироваться

    M

    Дата и время

    • 17:37:52
       

    Социальные ссылки


    Наши приложения

    • Muzbank App Play Market
    • Muzbank Amazon App