MUZBANK



A Most Complete Bank Of Music Information

МУЗЫКАЛЬНО-ИНФОРМАЦИОННЫЙ БАНК

Поиск по сайту







    MMotorhead • Jailbait (аккорды и текст - chords & lyrics)


    266

    Print

    Видео «Jailbait (Motorhead)»

    Видео клипы к песне подбираются автоматически сайтом youtube. Возможны некоторые несоответствия клипов песне.

    ↑ Спрятать рекламу ↑



    Download


    Tune down to Eb.
    
    Intro (with verse in background)
    1|----------------------------|
    2|----------------------------|
    3|----3----5----3-------------|
    4|----3----5----3-----3-5-3---|
    5|----------------3-5-------5-|
    6|-333--333--333--------------|
    
    Verse
    1|---------------------|
    2|---------------------|
    3|----3----5----3---55-|
    4|----3----5----3---55-|
    5|---------------------|
    6|-333--333--333--33---|
    
    Chorus
    1|---------------------------------------|
    2|---------------------------------------|
    3|---------------------------------------|
    4|---------------------------------------|
    5|-9-9-7-9--9-9-7-99-77-7-77-7-77-7-77-7-|
    6|-7-7-5-7--7-7-5-77-55-5-55-5-55-5-55-5-|
    
    1|-------------------------------------------------------|
    2|-------------------------------------------------------|
    3|-------------------------------------------------------|
    4|-1010-10-1010-10-1010-10-1010-10-99-9-99-9-99-9--------|
    5|--8-8--8--8-8--8--8-8--8--8-8--8-77-7-77-7-77-7---575--|
    6|------------------------------------------------57---7-|
    
    Bridge (x7) Fill
    1|-----------|------------|---------------------|
    2|-----------|------------|---------------------|
    3|-----------|------------|---------------------|
    4|-------5---|-5-7^-7-5-7-|-2nd block of chorus-|
    5|-577777-7~-|------------|---------------------|
    6|-----------|------------|---------------------|
    
    Coda
    1|--------------------------------------------|
    2|--------------------------------------------|
    3|-11-11-9-11--11-11-9-1111-99-9-99-9-99-9-99-|
    4|--9--9-7--9---9--9-7--9-9-77-7-77-7-77-7-77-|
    5|--------------------------------------------|
    6|--------------------------------------------|
    
    1|------------------------------------------------|
    2|------------------------------------------------|
    3|------------------------------------------------|
    4|-1010-10-1010-10-1010-10-1010-10-99-9-99-9-99-9-|
    5|--8-8--8--8-8--8--8-8--8--8-8--8-77-7-77-7-77-7-|
    6|------------------------------------------------|
    
    1|-------------------------------------------------5-----------------|
    2|-------------------------------------------------5-----------------|
    3|-------------------------------------------------5-----------------|
    4|-------------------------------------------------7tremolo pick--7⁄-|
    5|---575---575---575---575-----5-7-5-------5-7-5---7--------------7⁄-|
    6|-57---757---757---757---75-7-------7-5-7-------7-5--------------5⁄-|
    

    Тональность:

    Нет текста!



    Назад
    Рекомендуем посмотреть другие песни исполнителя «Motorhead»:

    • Комментарии Facebook ()
    • Комментарии ВКонтакте



    Добавить в Избранное Браузера
    Сохранить здесь Очистить


    x

    0


    +
    -

    +
    -

    -

    Авторизация





    Зарегистрироваться

    M

    Дата и время

    • 11:04:05
       

    Социальные ссылки


    Наши приложения

    • Muzbank App Play Market
    • Muzbank Amazon App