MUZBANK



A MOST COMPLETE BANK OF MUSIC INFORMATION

МУЗЫКАЛЬНО-ИНФОРМАЦИОННЫЙ БАНК







    MMotorhead • No Class (аккорды и текст - chords & lyrics)


    334

    Print

    Видео «No Class (Motorhead)»

    Видео клипы к песне подбираются автоматически сайтом youtube. Возможны некоторые несоответствия клипов песне.

    ↑ Спрятать рекламу ↑





    Intro/Verse/1st chorus
    
    *Note* Palm mute the open Ab notes
    
    -----------------------------------------------------
    -----------------------------------------------------
    -------7-7-5---7-7-5-------5-------------------------
    -------7-7-5---7-7-5---5h7---------------------------
    ---0-0-------0-------0-------------------------------
    -----------------------------------------------------
    
    Pre-chorus
    
    *Note* During the pre-chorus, use loose alternative picking.
    Although I have added the open Db notes, don't be too pedantic
    about playing it exactly how it is written. In the original
    recording it sounds like the open Db ties in with the drums.
    
    ---------------------------------------------------------
    ---------------------------------------------------------
    ---------5555----77-77-77-77--------5555----99-99-99-99--
    ---3333--5555----77-77-77-77--3333--5555----99-99-99-99--
    ---3333--3333---055055055055--3333--3333---077077077077--
    ---1111-----------------------1111-----------------------
    
    
    Second chorus
    
    *Note* Remember to mute the open notes
    
    ---------------------------------------------------------
    ---------------------------------------------------------
    ------7-7-5---7-7-5---22----7-7-5---7-7-5---22-----------
    ------7-7-5---7-7-5---22----7-7-5---7-7-5---22-----------
    --0-0-------0---------00--0-------0---------00-----------
    ---------------------------------------------------------
    
    Second chorus (continued)
    
    ---------------------------------------------------------
    ---------------------------------------------------------
    ----7-7-5---7-7-5---22----7-7-5--7-7-5-------------------
    ----7-7-5---7-7-5---22----7-7-5--7-7-5-------------------
    --0-------0---------00--0-------0------------------------
    ---------------------------------------------------------
    
    Solo riff
    
    ---------------------------------------------------------
    ---------------------------------------------------------
    --77777777-5-7-5-7-5-7-5-7-5-7-5-7-5-7-5-7-----55-----77-
    --77777777-5-7-5-7-5-7-5-7-5-7-5-7-5-7-5-7-----55-----77-
    --55555555-3-5-3-5-3-5-3-5-3-5-3-5-3-5-3-5--0--33--0--55-
    ---------------------------------------------------------
    
    Solo Riff (continued)
    
    ---------------------------------------------------------
    ---------------------------------------------------------
    -----99-----99-----99-----99-----------------------------
    -----99-----99-----99-----99-----------------------------
    --0--77--0--77--0--77--0--77-----------------------------
    ---------------------------------------------------------
    

    Тональность:

    Это должно быть в ТОП-листе! - Топ-лист композиций



    Назад
    Рекомендуем посмотреть другие песни исполнителя «Motorhead»:

    • Комменты Fb ()
    • Комменты ВК



    Добавить в Избранное Браузера
    Сохранить здесь Очистить


    x

    0


    +
    -

    +
    -

    -

    Авторизация





    Зарегистрироваться

    M

    Дата и время

    • 03:28:43
       

    Социальные ссылки


    Наши приложения

    • Muzbank App Play Market
    • Muzbank Amazon App