MUZBANK



A Most Complete Bank Of Music Information

МУЗЫКАЛЬНО-ИНФОРМАЦИОННЫЙ БАНК

Поиск по сайту







    MMotorhead • Sacrifice (аккорды и текст - chords & lyrics)


    320

    Print

    Видео «Sacrifice (Motorhead)»

    Видео клипы к песне подбираются автоматически сайтом youtube. Возможны некоторые несоответствия клипов песне.

    ↑ Спрятать рекламу ↑



    Download


    Tune down half a step to Eb.
    
    Main riff
    e|------------------------|
    B|------------------------|
    G|------------------------|
    D|------------------------|
    A|------------------------|
    E|-0-0-000-0-0-00-0-0-000-|
    
    Verses 1 & 2 (twice)
    e|------------------------|------------------------|
    B|------------------------|------------------------|
    G|------------------------|---5---------2----------|
    D|------------------------|---5---------2----------|
    A|------------------------|---3---------0----------|
    E|-0-0-000-0-0-00-0-0-000-|------------------------|
    
    Chorus
    e|-------------------|
    B|-------------------|
    G|-------------------|
    D|-9-9-----------7-7-|
    A|-7-7-7-79-9-99-5-5-|
    E|-----5-57-7-77-----|
    
    Bridge (3 times) (4th time)
    e|---------------------------------|----------------------------------|
    B|---------------------------------|----------------------------------|
    G|---------------------------------|----------------------------------|
    D|------------8-8-8-8/9------9-----|------------8-8-8-8-----------8-8-|
    A|------------8-8-8-8/9------9-----|------------8-8-8-8-----------8-8-|
    E|-3333333333-6-6-6-6/7------7-----|-3333333333-6-6-6-6-333333333-6-6-|
    
    Verse 3 (twice)
    e|------------------------|------------------------|
    B|------------------------|------------------------|
    G|------------------------|---5---------2----------|
    D|---------9----------3/4-|---5---------2----------|
    A|---------7----------1/2-|---3---------0----------|
    E|-0-0-000-0-0-00-0-0-----|------------------------|
    

    Тональность:

    Нет текста!



    Назад
    Рекомендуем посмотреть другие песни исполнителя «Motorhead»:

    • Комментарии Facebook ()
    • Комментарии ВКонтакте



    Добавить в Избранное Браузера
    Сохранить здесь Очистить


    x

    0


    +
    -

    +
    -

    -

    Авторизация





    Зарегистрироваться

    M

    Дата и время

    • 15:00:00
       

    Социальные ссылки


    Наши приложения

    • Muzbank App Play Market
    • Muzbank Amazon App