MUZBANK



A Most Complete Bank Of Music Information

МУЗЫКАЛЬНО-ИНФОРМАЦИОННЫЙ БАНК








    MMotorhead • The One To Sing The Blues (аккорды и текст - chords & lyrics)


    289

    Print

    Видео «The One To Sing The Blues (Motorhead)»

    Видео клипы к песне подбираются автоматически сайтом youtube. Возможны некоторые несоответствия клипов песне.

    ↑ Спрятать рекламу ↑





    Tuning: Eb
    
    Riff 1:
    Eb F Ab F Eb F
    ------------------------------
    ------------------------------
    -9/11-xxxx-14⁄11-xxxx-9/11----
    -9/11-xxxx-14⁄11-xxxx-9/11----drumroll
    -6/9--xxxx-12⁄9--xxxx-6/9-----
    ------------------------------
    
    repeat 4 times
    
    
    Riff 2:
    Ab Bb Db Bb Ab Bb Ab
    -------------------------------------
    -------------------------------------
    -------------------------------------
    -7/9-xxxx-12⁄9-xxxx-7/9-xxxx-7-------
    -7/9-xxxx-12⁄9-xxxx-7/9-xxxx-7-------
    -5/7-xxxx-10⁄7-xxxx-5/7-xxxx-5/7~~---
    
    repeat 4 times
    
    
    Riff 3:
    Ab Db Eb
    ------------------
    ------------------
    ------7----9------
    -7----7----9------
    -7----5----7------
    -5----------------
    
    repeat Riff 2
    repeat Riff 3
    repeat Riff 1 (2x), but instead of the drumroll play the last two chords again.
    
    repeat Riff 2 (2x), but instead of the last two chords there's a drumroll
    
    
    Riff 2:
    Ab Bb Db Bb Ab Bb Ab
    -------------------------------------
    -------------------------------------
    -------------------------------------
    -7/9-xxxx-12⁄9-xxxx-7/9-xxxx-7-------
    -7/9-xxxx-12⁄9-xxxx-7/9-xxxx-7-------
    -5/7-xxxx-10⁄7-xxxx-5/7-xxxx-5/7~~---
    
    repeat 4 times
    
    
    Riff 3:
    Ab Db Eb
    ------------------
    ------------------
    ------7----9------
    -7----7----9------
    -7----5----7------
    -5----------------
    
    repeat Riff 2
    repeat Riff 3
    repeat Riff 1 (2x), but instead of the drumroll play the last two chords again.
    
    
    Under the solo guitar 2 plays:
    Bb Ab Db Eb
    ---------------------
    ---------------------
    -----------7----9----
    -9----7----7----9---- three times
    -9----7----5----7----
    -7----5--------------
    
    then strum Eb for two measures
    
    repeat Riff 2 (2x), but instead of the last two chords there's a drumroll
    
    
    Riff 2:
    Ab Bb Db Bb Ab Bb Ab
    -------------------------------------
    -------------------------------------
    -------------------------------------
    -7/9-xxxx-12⁄9-xxxx-7/9-xxxx-7-------
    -7/9-xxxx-12⁄9-xxxx-7/9-xxxx-7-------
    -5/7-xxxx-10⁄7-xxxx-5/7-xxxx-5/7~~---
    
    repeat 4 times
    
    
    Riff 3:
    Ab Db Eb
    ------------------
    ------------------
    ------7----9------
    -7----7----9------
    -7----5----7------
    -5----------------
    
    repeat Riff 2
    repeat Riff 3
    repeat Riff 1 (2x), but instead of the drumroll play the last two chords again.
    
    
    Under the solo guitar 2 plays:
    Bb Ab Db Eb
    ---------------------
    ---------------------
    -----------7----9----
    -9----7----7----9---- three times
    -9----7----5----7----
    -7----5--------------
    
    then strum Eb for two measures
    
    repeat this and end with:
    
    Ab Bb Db Bb Ab Bb Ab Eb
    -------------------------------------
    -------------------------------------
    -------------------------------------
    -7/9-xxxx-12⁄9-xxxx-7/9-xxxx-7/9-----
    -7/9-xxxx-12⁄9-xxxx-7/9-xxxx-7/9-----
    -5/7-xxxx-10⁄7-xxxx-5/7-xxxx-5/7-----
    

    Тональность:

    Нет текста!



    Назад
    Рекомендуем посмотреть другие песни исполнителя «Motorhead»:

    • Комменты Fb ()
    • Комменты ВК



    Добавить в Избранное Браузера
    Сохранить здесь Очистить


    x

    0


    +
    -

    +
    -

    -

    Авторизация





    Зарегистрироваться

    M

    Дата и время

    • 02:13:13
       

    Социальные ссылки


    Наши приложения

    • Muzbank App Play Market
    • Muzbank Amazon App