MUZBANK



A Most Complete Bank Of Music Information

МУЗЫКАЛЬНО-ИНФОРМАЦИОННЫЙ БАНК

Поиск по сайту







    MMotorhead • We Are Motorhead (аккорды и текст - chords & lyrics)


    210

    Print

    Видео «We Are Motorhead (Motorhead)»

    Видео клипы к песне подбираются автоматически сайтом youtube. Возможны некоторые несоответствия клипов песне.

    ↑ Спрятать рекламу ↑



    Download



     
    
    
    M O T ? R H E A D
                            WE ARE MOTORHEAD (2:21)
                           (Kilmister/Campbell/Lee)
    
    
    Tune to Eb.
    
    Intro/Verse
    -------------------|
    -2-0-2-00-2-0-2-00-|
    -------------------|
    -------------------|
    
    Pre
    ------------|
    ------------|
    ------------|
    -5---0-0-0--|
    
    Chorus
    -------------------|
    -------------------|
    -3----5------------|
    -------------------|
    
    Solo
    -----------------------|
    -----------------------|
    -2-2-2-2-2-------------|
    ------------2-2-2-2-2--|
    
    -------------------|
    -------------------|
    -5------7----------|
    -------------------|
    
    Ending
    ----------|
    ----------|
    -7-5--7---|
    ----------|
    
    /metal_up_your_ass@2die4.com
     

    Тональность:

    Нет текста!



    Назад
    Рекомендуем посмотреть другие песни исполнителя «Motorhead»:

    • Комментарии Facebook ()
    • Комментарии ВКонтакте



    Добавить в Избранное Браузера
    Сохранить здесь Очистить


    x

    0


    +
    -

    +
    -

    -

    Авторизация





    Зарегистрироваться

    M

    Дата и время

    • 07:45:16
       

    Социальные ссылки


    Наши приложения

    • Muzbank App Play Market
    • Muzbank Amazon App