MUZBANK



A Most Complete Bank Of Music Information

МУЗЫКАЛЬНО-ИНФОРМАЦИОННЫЙ БАНК

Поиск по сайту







    MMotorhead • We Are The Road Crew (аккорды и текст - chords & lyrics)


    257

    Print

    Видео «We Are The Road Crew (Motorhead)»

    Видео клипы к песне подбираются автоматически сайтом youtube. Возможны некоторые несоответствия клипов песне.

    ↑ Спрятать рекламу ↑



    Download


    Intro X2
    E|--------------------|
    B|--------------------|
    G|--9-----7-----------|
    D|--7-----5---------5-|
    A|---------------0--3-|
    E|--------------------|
    
    E|----------------------------------------------------------|
    B|----------------------------------------------------------|
    G|--9-----7------------------------------------------5------|
    D|--7-----5---------5----7----------------5---7-----------7-|
    A|---------------0--3----5-------5---7----------------------|
    E|----------------------------------------------------------|
    
    Verse:
    "Another town, another place, another girl,
    another face, another truce, another race"
    E|----------------------------------------------|
    B|----------------------------------------------|
    G|----------------------------------------------|
    D|2-2-2-2-2-2-2-2-2-2-2-2-2-2-2-2-2-2-2-2-2-2-2-|
    A|0-0-0-0-0-0-0-0-0-0-0-0-0-0-0-0-0-0-0-0-0-0-0-|
    E|----------------------------------------------|
    
    E|---------------------------------------|
    B|---------------------------------------|
    G|---------------------------------------|
    D|-2-2-2-2-2-2-2-2-2-2-2-2-2-2-2-2-2-2-2-|
    A|-0-0-0-0-0-0-0-0-0-0-0-0-0-0-0-0-0-0-0-|
    E|---------------------------------------|
    
    E|--------------|
    B|--------------|
    G|--------------|
    D|--------------|
    A|5-5-5---3-3-3-|
    E|3-3-3---1-1-1-|
    
    "I'm eating junk, feeling bad, another night,
    I'm going mad, my woman's leaving, I feel bad"
    E|----------------------------------------------|
    B|----------------------------------------------|
    G|----------------------------------------------|
    D|2-2-2-2-2-2-2-2-2-2-2-2-2-2-2-2-2-2-2-2-2-2-2-|
    A|0-0-0-0-0-0-0-0-0-0-0-0-0-0-0-0-0-0-0-0-0-0-0-|
    E|----------------------------------------------|
    
    E|---------------------------------------|
    B|---------------------------------------|
    G|---------------------------------------|
    D|-2-2-2-2-2-2-2-2-2-2-2-2-2-2-2-2-2-2-2-|
    A|-0-0-0-0-0-0-0-0-0-0-0-0-0-0-0-0-0-0-0-|
    E|---------------------------------------|
    
    E|--------------|
    B|--------------|
    G|--------------|
    D|--------------|
    A|5-5-5---3-3-3-|
    E|3-3-3---1-1-1-|
    
    "But I just love the life I need, another beer
    is what I need, another gig my ears bleed"
    E|--------------------------------------------|
    B|--------------------------------------------|
    G|--------------------------------------------|
    D|2-2-2-2-2-2-2-2-2-2-2-2-2-2-2-2-2-2-2-2-2-2-|
    A|0-0-0-0-0-0-0-0-0-0-0-0-0-0-0-0-0-0-0-0-0-0-|
    E|--------------------------------------------|
    
    E|-----------------------------------------|
    B|-----------------------------------------|
    G|-----------------------------------------|
    D|-2-2-2-2-2-2-2-2-2-2-2-2-2-2-2-2-2-2-2-2-|
    A|-0-0-0-0-0-0-0-0-0-0-0-0-0-0-0-0-0-0-0-0-|
    E|-----------------------------------------|
    
    E|--------------|
    B|--------------|
    G|--------------|
    D|--------------|
    A|5-5-5---3-3-3-|
    E|3-3-3---1-1-1-|
    
    Chorus:
    "We are the road crew"
    E|----------------------------------------------------------|
    B|----------------------------------------------------------|
    G|--9-----7------------------------------------------5------|
    D|--7-----5---------5----7----------------5---7-----------7-|
    A|---------------0--3----5-------5---7----------------------|
    E|----------------------------------------------------------|
    
    Background for solo 1:
    E|--------------------------------------------|
    B|--------------------------------------------|
    G|--------------------------------------------|
    D|2-2-2-2-2-2-2-2-2-2-2-2-2-2-2-2-2-2-2-2-2-2-|
    A|0-0-0-0-0-0-0-0-0-0-0-0-0-0-0-0-0-0-0-0-0-0-|
    E|--------------------------------------------|
    
    E|-----------------------------------------|
    B|-----------------------------------------|
    G|-----------------------------------------|
    D|-2-2-2-2-2-2-2-2-2-2-2-2-2-2-2-2-2-2-2-2-|
    A|-0-0-0-0-0-0-0-0-0-0-0-0-0-0-0-0-0-0-0-0-|
    E|-----------------------------------------|
    
    E|--------------|
    B|--------------|
    G|--------------|
    D|--------------|
    A|5-5-5---3-3-3-|
    E|3-3-3---1-1-1-|
    
    Background for solo 2:
    
    E|----------------------------|
    B|----------------------------|
    G|----------------------------|
    D|2-2-2-2-2-2-2-2-2-2-2-2-2-2-|
    A|0-0-0-0-0-0-0-0-0-0-0-0-0-0-|
    E|----------------------------|
    
    E|--------------|
    B|--------------|
    G|--------------|
    D|--------------|
    A|5-5-5---3-3-3-|
    E|3-3-3---1-1-1-|
    

    Тональность:

    Нет текста!



    Назад
    Рекомендуем посмотреть другие песни исполнителя «Motorhead»:

    • Комментарии Facebook ()
    • Комментарии ВКонтакте



    Добавить в Избранное Браузера
    Сохранить здесь Очистить


    x

    0


    +
    -

    +
    -

    -

    Авторизация





    Зарегистрироваться

    M

    Дата и время

    • 07:13:58
       

    Социальные ссылки


    Наши приложения

    • Muzbank App Play Market
    • Muzbank Amazon App