MUZBANK



A Most Complete Bank Of Music Information

МУЗЫКАЛЬНО-ИНФОРМАЦИОННЫЙ БАНК

Поиск по сайту







    MMotorhead • Your Sister (аккорды и текст - chords & lyrics)


    240

    Print

    Видео «Your Sister (Motorhead)»

    Видео клипы к песне подбираются автоматически сайтом youtube. Возможны некоторые несоответствия клипов песне.

    ↑ Спрятать рекламу ↑



    Download


    eb|-----------------------|
    Bb|---5----7-5--5-7p5-----|
    Gb|---5-5--7-5--5-7p5-----|
    Db|---------------------7-|
    Ab|-----------------------|
    Eb|-----------------------|
    
    eb|---------------------------------------|
    Bb|-------------------5----7-5--5-7p5-----|
    Gb|-------------------5-5--7-5--5-7p5-----|
    Db|------7------7-----------------------7-|
    Ab|-0-0----0-0-----0----------------------|
    Eb|---------------------------------------|
    
    eb|----0---------------------------|
    Bb|----0---------------------------|
    Gb|--------------------------------|
    Db|-2----2-2-2--3--3--3-3-3--3-3-3-|
    Ab|-2----2-2-2--3--3--3-3-3--3-3-3-|
    Eb|-0----0-0-0--1--1--1-1-1--1-1-1-|
    
    Eb|-------------|
    Bb|-------------|
    Gb|-------------|
    Db|--5-5-5-5-5--|
    Ab|--5-5-5-5-5--|
    Eb|--3-3-3-3-3--|
    
    eb|---------------------------------------|
    Bb|-------------------5----7-5--5-7p5-----|
    Gb|-------------------5-5--7-5--5-7p5-----|
    Db|------7------7-----------------------7-|
    Ab|-0-0----0-0-----0----------------------|
    Eb|---------------------------------------|
    
    eb|----0---------------------------|
    Bb|----0---------------------------|
    Gb|--------------------------------|
    Db|-2----2-2-2--3--3--3-3-3--3-3-3-|
    Ab|-2----2-2-2--3--3--3-3-3--3-3-3-|
    Eb|-0----0-0-0--1--1--1-1-1--1-1-1-|
    
    eb|-------------|
    Bb|-------------|
    Gb|-------------|
    Db|--5-5-5-5-5--|
    Ab|--5-5-5-5-5--|
    Eb|--3-3-3-3-3--|
    
    eb|---------------------------------------|
    Bb|-------------------5----7-5--5-7p5-----|
    Gb|-------------------5-5--7-5--5-7p5-----|
    Db|------7------7-----------------------7-|
    Ab|-0-0----0-0-----0----------------------|
    Eb|---------------------------------------|
    
    solo
    eb|---------------------------------------------------|
    Bb|---------------------------------------------------|
    Gb|-7b-7b--7b-7b--7b-7b--7b--7b-7b-7b-7b--7b--7b-7b---|
    Db|---------------------------------------------------|
    Ab|---------------------------------------------------|
    Eb|---------------------------------------------------|
    
    Eb|----------------------------------------|
    Bb|-10p8---8-10p8---8-10-8----------5--7-5-|
    Gb|------9--------9--------9-7--5-7-5--7-5-|
    Db|----------------------------------------|
    Ab|----------------------------------------|
    Eb|----------------------------------------|
    repeat repeat
    
    eb|---------------------------------------------------------*-|
    Bb|---5-7p5-----7p5----5---------5-7-7b-7b-5-7--5--5-7-5----*-|
    Gb|---5-7p5-----7p5----5-7p5-----5-7-7b-7b-5-7--5--5-7-5----*-|
    Db|-7-------7--------7---------7-------------------------7--*-|
    Ab|---------------------------------------------------------*-|
    Eb|---------------------------------------------------------*-|
    
    Eb|----------------*-------------|
    Bb|----5----5----5-*-8p5---8p5---|
    Gb|--/6--/6---/6---*-----6-----6-|
    Db|----------------*-------------|
    Ab|----------------*-------------|
    Eb|----------------*-------------|
    
    repeat repeat
    eb|-------*--------------------------------------------*----------*--------|
    Bb|-8b⁄---*--14bp12----12-----12-14-14b----------12~~~-*----------*--------|
    Gb|-------*--14bp12----12-----12-14-14bp12-12-14-12~~~-*-14p12----*-14b~~~-|
    Db|-------*---------14-----14--------------------------*-------14-*--------|
    Ab|-------*--------------------------------------------*----------*--------|
    Eb|-------*--------------------------------------------*----------*--------|
    
    eb|---------------------------------------|
    Bb|-------------------5----7-5--5-7p5-----|
    Gb|-------------------5-5--7-5--5-7p5-----|
    Db|------7------7-----------------------7-|
    Ab|-0-0----0-0-----0----------------------|
    Eb|---------------------------------------|
    
    eb|----0---------------------------|
    Bb|----0---------------------------|
    Gb|--------------------------------|
    Db|-2----2-2-2--3--3--3-3-3--3-3-3-|
    Ab|-2----2-2-2--3--3--3-3-3--3-3-3-|
    Eb|-0----0-0-0--1--1--1-1-1--1-1-1-|
    
    Eb|-------------|
    Bb|-------------|
    Gb|-------------|
    Db|--5-5-5-5-5--|
    Ab|--5-5-5-5-5--|
    Eb|--3-3-3-3-3--|
    
    eb|---------------------------------------|
    Bb|-------------------5----7-5--5-7p5-----|
    Gb|-------------------5-5--7-5--5-7p5-----|
    Db|------7------7-----------------------7-|
    Ab|-0-0----0-0-----0----------------------|
    Eb|---------------------------------------|
    
    solo 2 --------------------- repeat
    Eb|------------------------/----15----15----15----*-|
    Bb|-------16bp13------15bf/--15----15----15----15-*-|
    Gb|-14-17--------14-------------------------------*-|
    Db|-----------------------------------------------*-|
    Ab|-----------------------------------------------*-|
    Eb|-----------------------------------------------*-|
    
    Eb|-------------------*----------------------|
    Bb|-15b-15b-15bp13----*----------------------|
    Gb|----------------14-*-14---7b-7b--7bp5---5-|
    Db|-------------------*------------------7---|
    Ab|-------------------*----------------------|
    Eb|-------------------*----------------------|
    
    eb|----------------------------------------------------|
    Bb|------------------------12----------------12--------|
    Gb|---5-7b-5---------12-14----14-12----12-14----14-12--|
    Db|-7--------7----14----------------14-----------------|
    Ab|----------------------------------------------------|
    Eb|----------------------------------------------------|
    
    Eb|------------------------------|
    Bb|----------12------------------|
    Gb|----12-14----14-12-----12-14b-|
    Db|-14----------------14---------|
    Ab|------------------------------|
    Eb|------------------------------|
    

    Тональность:

    Нет текста!



    Назад
    Рекомендуем посмотреть другие песни исполнителя «Motorhead»:

    • Комментарии Facebook ()
    • Комментарии ВКонтакте



    Добавить в Избранное Браузера
    Сохранить здесь Очистить


    x

    0


    +
    -

    +
    -

    -

    Авторизация





    Зарегистрироваться

    M

    Дата и время

    • 09:06:48
       

    Социальные ссылки


    Наши приложения

    • Muzbank App Play Market
    • Muzbank Amazon App