MUZBANK



A Most Complete Bank Of Music Information

МУЗЫКАЛЬНО-ИНФОРМАЦИОННЫЙ БАНК

Поиск по сайту







    MMovielife • Hey (аккорды и текст - chords & lyrics)


    236

    Print

    Видео «Hey (Movielife)»

    Видео клипы к песне подбираются автоматически сайтом youtube. Возможны некоторые несоответствия клипов песне.

    ↑ Спрятать рекламу ↑



    Download


     
    
    
    The Movielife
    Hey
    Forty Hour Train Back To Penn
    ************************************************************
    
    MAIN PART
    This is played clean for the intro and 
    distorted for the verse
    E|-------------------------------------------|
    B|-------------------------------------------|
    G|--------888888--------666666---------------|
    D|-666666-888888-333333-666666---------------|
    A|-666666-666666-333333-444444---------------|
    E|-444444--------111111----------------------|
    
    E|-------------------------------------------|
    B|-------------------------------------------|
    G|-666666-888888--------888888---------------|
    D|-666666-888888-333333-888888---------------|
    A|-444444-666666-333333-666666---------------|
    E|---------------111111----------------------|
    
    E|-------------------------------------------|
    B|-------------------------------------------|
    G|-666-888--------666-888--------8~----------|
    D|-666-888-333333-666-888-666666-8~----------|
    A|-444-666-333333-444-666-666666-6~----------|
    E|---------111111---------444444-------------|
    
    E|-------------------------------------------|
    B|-------------------------------------------|
    G|-666-888---------666-888-------------------|
    D|-666-888-666-333-666-888-6~----------------|
    A|-444-666-666-333-444-666-6~----------------|
    E|---------444-111---------4~~---------------|
    
    SOLO
    Second guitar the first part of the chord
    progression above.
    E|-------------------------------------------|
    B|--------11---------------------------------|
    G|-----8------------------------8--8--8------|
    D|-10--------8h10p8h10p8h10---10-10-10-10----|
    A|--------------------------10---------------|
    E|-------------------------------------------|
    
    E|-------------------------------------------|
    B|------11-------11-------11-------11--------|
    G|-------------------------------------------|
    D|-8h10-----8--------8h10-----8h10-----------|
    A|------------10-----------------------------|
    E|-------------------------------------------|
    
    E|-----------------88888888------------------|
    B|------11111111111--------111111111111------|
    G|-------------------------------------------|
    D|-8h10--------------------------------------|
    A|-------------------------------------------|
    E|-------------------------------------------|
              
    E|-------------------------------------------|
    B|------11-/--13-11--------------------------|
    G|------------------13-10~-------------------|
    D|-8h10--------------------------------------|
    A|-------------------------------------------|
    E|-------------------------------------------|
    
    ************************************************************
    Tabbed By mikejones
    Subordinate333@yahoo.com
     

    Тональность:

    Нет текста!



    Назад
    Рекомендуем посмотреть другие песни исполнителя «Movielife»:

    • Комментарии Facebook ()
    • Комментарии ВКонтакте



    Добавить в Избранное Браузера
    Сохранить здесь Очистить


    x

    0


    +
    -

    +
    -

    -

    Авторизация





    Зарегистрироваться

    M

    Дата и время

    • 16:58:20
       

    Социальные ссылки


    Наши приложения

    • Muzbank App Play Market
    • Muzbank Amazon App