MUZBANK



A Most Complete Bank Of Music Information

МУЗЫКАЛЬНО-ИНФОРМАЦИОННЫЙ БАНК

Поиск по сайту







    MMraz Jason • You And I Both (аккорды и текст - chords & lyrics)


    286

    Print

    Видео «You And I Both (Mraz Jason)»

    Видео клипы к песне подбираются автоматически сайтом youtube. Возможны некоторые несоответствия клипов песне.

    ↑ Спрятать рекламу ↑



    Download


     
    
    
    -------------------------------------------------------------------------------
    			     You And I Both - Jason Mraz
    -------------------------------------------------------------------------------
    Tabbed by: Marc C. Oestreich
    Email: lifter0101@hotmail.com
    
    Tuning: EADGBE (no capo)
    
         Verse and Chorus
    e|---3-----------8-------|
    B|---3-----------8---3---|
    G|---4---7---5---x---2---|
    D|---5---5---5---7---0---|
    A|---5---7---x---x---x---|
    E|---3---0---5---8---2---|
    
         Bridge
    e|---3---5---3-------0-------------------------------------------------------|
    B|---3---3---3---3---0-------------------------------------------------------|
    G|---0---0---0---2---0-------------------------------------------------------|
    D|---2---4---0---0---2-------------------------------------------------------|
    A|---3---5---x---x---2-------------------------------------------------------|
    E|-----------3---2---0-------------------------------------------------------|
    
    | x  Mute note
    ===============================================================================
    Was it you who spoke the words that things would happen but not to me
    Oh things are gonna happen naturally
    And taking your advice I 

    Тональность:

    Нет текста!



    Назад
    Рекомендуем посмотреть другие песни исполнителя «Mraz Jason»:

    • Комментарии Facebook ()
    • Комментарии ВКонтакте



    Добавить в Избранное Браузера
    Сохранить здесь Очистить


    x

    0


    +
    -

    +
    -

    -

    Авторизация





    Зарегистрироваться

    M

    Дата и время

    • 21:31:19
       

    Социальные ссылки


    Наши приложения

    • Muzbank App Play Market
    • Muzbank Amazon App