MUZBANK



A Most Complete Bank Of Music Information

МУЗЫКАЛЬНО-ИНФОРМАЦИОННЫЙ БАНК

Поиск по сайту







    MMudvayne • A Key To Nothing (аккорды и текст - chords & lyrics)


    219

    Print

    Видео «A Key To Nothing (Mudvayne)»

    Видео клипы к песне подбираются автоматически сайтом youtube. Возможны некоторые несоответствия клипов песне.

    ↑ Спрятать рекламу ↑



    Download


     
    
    
    no one has tabbed the song so i did
    I also did Army of me & inside the clinic
    
    Tuning:CGCFAD   Intro:
    
      ......                ....
    C-3p1-00----------------1-00----------------
    G-3p1-00----------------1-00----------------
    C-----00------------------00----------------
    F-------------------------------------------
    A-------------------------------------------
    D-------12p11-12p11~~~12----12p11-12p11~~~12
    .....               .....
    C-000---------------1-1-0--------------
    G-000---------------1-1-0--------------
    C-----------------------0--------------
    F-------------------------------------- verses
    A--------------------------------------
    D----12p11-12p11-12------12p11-12p11-12
    
                    chorus
      ..............   ...   ..   ....
    C-0-2-1-0-1-0-00-3-0-0-3-00-3-0000-3
    G-0-2-1-0-1-0-00-3-0-0-3-00-3-0000-3
    C----------------3-----3----3------3
    F-----------------------------------
    A-----------------------------------
    D-----------------------------------
    
                 Bridge
                         ........
    C--------------------00000000-----
    G--------8----5-------------------
    C-5h8-6----5----------------------
    F--------------------------------- repeat a couple a times
    A---------------------------------
    D---------------------------------
    
    
    outro: w/volume pedal (Fade)
    
    
    C-00000-00---------------------------
    G------0--0--------------------------
    C------x--x--------------------------
    F------2--2--------------------------
    A------------------------------------
    D------------------------------------
    
    
    put it together & ya get a pretty heavy song
    
    
    Key
    
    ... palm mute
    h-- hammer
    p-- pull off
    
    
    
    
    
    
    
    
    C
    G
    C
    F
    A
    D
     

    Тональность:

    Нет текста!



    Назад
    Рекомендуем посмотреть другие песни исполнителя «Mudvayne»:

    • Комментарии Facebook ()
    • Комментарии ВКонтакте



    Добавить в Избранное Браузера
    Сохранить здесь Очистить


    x

    0


    +
    -

    +
    -

    -

    Авторизация





    Зарегистрироваться

    M

    Дата и время

    • 10:01:29
       

    Социальные ссылки


    Наши приложения

    • Muzbank App Play Market
    • Muzbank Amazon App