MUZBANK



A Most Complete Bank Of Music Information

МУЗЫКАЛЬНО-ИНФОРМАЦИОННЫЙ БАНК

Поиск по сайту







    MMudvayne • Negative One (аккорды и текст - chords & lyrics)


    262

    Print

    Видео «Negative One (Mudvayne)»

    Видео клипы к песне подбираются автоматически сайтом youtube. Возможны некоторые несоответствия клипов песне.

    ↑ Спрятать рекламу ↑



    Download


     
    
    
    BAND: MuDvAyNe
    SONG: -1
    ALBUM: L.D. 50
    TUNING: Dropped-D, down 1.5 steps (B, F#, B, E, G#, C#).
    Tabed by ATS
    
    INTRO/VERSE:  Gently w/ Mild Distortion
    
    C#|--------------------------------------------------------|
    G#|--------------------------------------------------------|
    E |--------------------------------------------------------|
    B |-3-3-3-3-3-3-3-3-3-3-3-3-4-4--2-2-2-2-2-2-2-2-2-2-2-----|
    F#|----------------------------------------------------0-0-|
    B |--------------------------------------------------------|
    
    CHORUS: w/ Heavy Distortion.
    
    C#|-----------------------------|
    G#|-----------------------------|
    E |-----------------------------|
    B |-1p0-0-0-0-h1--1p0-0-0-X-0-0-|
    F#|-1p0-0-0-0-h1--1p0-0-0-X-0-0-|
    B |-1p0-0-0-0-h1--1p0-0-0-X-0-0-| x4, then-
    
    C#|-----------------|
    G#|-----------------|
    E |-----------------|
    B |-1p0-0-0--0--0---|
    F#|-1p0-0-0--0--0---|
    B |-1p0-0-0--0--0---| x4
    
    Only on second chorus:
    
    C#|-----------------------------|
    G#|-----------------------------|
    E |-----------------------------|
    B |-1p0-0-0-0-h1--1p0-0-0-X-0-0-|
    F#|-1p0-0-0-0-h1--1p0-0-0-X-0-0-|
    B |-1p0-0-0-0-h1--1p0-0-0-X-0-0-| x4
    
    FILL AFTER SECOND CHORUS:
    
    C#|-----------------------------|
    G#|-----------------------------|
    E |-----------------------------|
    B |-----------------------------|
    F#|-1p0-0-0-0-h1--1p0-0-0-X-0-0-|
    B |-1p0-0-0-0-h1--1p0-0-0-X-0-0-|
    
    LEAD-IN BEFORE INTERLUDE:
    
    C#|---|
    G#|---|
    E |---|
    B |-2-|
    F#|-2-|
    B |-2-| strum this cord around 60 or so times, then:
    
    C#|--------------------------------|
    G#|--------------------------------|
    E |--------------------------------|
    B |-2-2-2-2-2-2-2-2-2-2-2-2-2--X-X-|
    F#|-2-2-2-2-2-2-2-2-2-2-2-2-2--X-X-|
    B |-2-2-2-2-2-2-2-2-2-2-2-2-2--X-X-| x4
    
    INTERLUDE: no guitar.
    
    LAST CHORUS:
    
    C#|-----------------------------|
    G#|-----------------------------|
    E |-----------------------------|
    B |-1p0-0-0-0-h1--1p0-0-0-X-0-0-|
    F#|-1p0-0-0-0-h1--1p0-0-0-X-0-0-|
    B |-1p0-0-0-0-h1--1p0-0-0-X-0-0-| x8, then:
    
    C#|---------------------------------------------------------|
    G#|---------------------------------------------------------|
    E |---------------------------------------------------------|
    B |-1p0-0-0-0-h1--1p0-0-0-X-X--1p0-0-0-0-h1--1p0-0-0-X-X-X-X|
    F#|-1p0-0-0-0-h1--1p0-0-0-X-X--1p0-0-0-0-h1--1p0-0-0-X-X-X-X|
    B |-1p0-0-0-0-h1--1p0-0-0-X-X--1p0-0-0-0-h1--1p0-0-0-X-X-X-X|
    
    C#|----------------------------------------------------|
    G#|----------------------------------------------------|
    E |----------------------------------------------------|
    B |-1p0-0-0-0-h1--1p0-0-0-X-X-1p0-0-0-0-h1--1p0-0-0-X-X|
    F#|-1p0-0-0-0-h1--1p0-0-0-X-X-1p0-0-0-0-h1--1p0-0-0-X-X|
    B |-1p0-0-0-0-h1--1p0-0-0-X-X-1p0-0-0-0-h1--1p0-0-0-X-X|
    
    END ON THIS:
    
    C#|-------------|
    G#|-------------|
    E |-------------|
    B |-1-1-0-0-1p0-|
    F#|-1-1-0-0-1p0-|
    B |-1-1-0-0-1p0-|
     

    Тональность:

    Нет текста!



    Назад
    Рекомендуем посмотреть другие песни исполнителя «Mudvayne»:

    • Комментарии Facebook ()
    • Комментарии ВКонтакте



    Добавить в Избранное Браузера
    Сохранить здесь Очистить


    x

    0


    +
    -

    +
    -

    -

    Авторизация





    Зарегистрироваться

    M

    Дата и время

    • 21:34:07
       

    Социальные ссылки


    Наши приложения

    • Muzbank App Play Market
    • Muzbank Amazon App