MUZBANK



A Most Complete Bank Of Music Information

МУЗЫКАЛЬНО-ИНФОРМАЦИОННЫЙ БАНК

Поиск по сайту







    MMudvayne • Not Falling (аккорды и текст - chords & lyrics)


    395

    Print

    Видео «Not Falling (Mudvayne)»

    Видео клипы к песне подбираются автоматически сайтом youtube. Возможны некоторые несоответствия клипов песне.

    ↑ Спрятать рекламу ↑



    Download



     
    
    
    Mudvayne
    Not Falling
    The end of all things to come
    Pnutryknow21587@aol.com
    
    this song is written out from start to end
    
    Tuning C G C F
    * -strum quickly with thumb and forefinger (as if having a pick in hand)
    ()- quarter note rest
    [] - eighth note rest
    
    ALL PARTS ARE IN 4/4 TIME UNLESS OTHERWISE MARKED LIKE THIS ----->   
    INTRO
    F:--------------------------------  (repeat 3x)
    C:-10/9-9-9-9-9-9-9-9-9-9-9-9-9-9-
    G:--------------------------------
    C:--------------------------------
    
    F: -10/9-9-9-9-9-9-9--------------
    C:--------------------------------
    G:--------------------------------
    C:-------------------9---3--0-3---
    
    F:---------------------------------------------------
    C:---------------------------------------------------
    G:-----------------------------------1-1-1-1-0-0-0-0-
    C:-0-3-0--0-3-0-3-0--0-3-0-3-0-0-3-0-----------------
    
    F:-----------------------------------10-10-10-10-10-10-10-10
    C:------------------------------------x--x--x--x--x--x--x--x
    G:------------------------------------8--8--8--8--8--8--8--8
    C:-0-3-0--0-3-0-3-0--0-3-0-3-0-3-3-0-----------------------
                                          *  *  *  *  *  *  *  *
    
    F:---------------------------------------------------
    C:---------------------------------------------------
    G:-----------------------------------1-1-1-1-0-0-0-0-
    C:-0-3-0--0-3-0-3-0--0-3-0-3-0-0-3-0-----------------
    
    F:---------------------------------------------------
    C:---------------------------------------------------
    G:---------------------------------------------------
    C:-0-3-0--0-3-0-3-0----------------------------------
    
    VERSE 1 
    
    F:-------------------------------------------------------3/5-5--3-3--3-
    C:--------------7------------------5-5/7--5------------3---------------
    G:-5--5-5-5-5-5---5-5--5--3--3-3-3----------3--1--1-1-1----------------
    C:---------------------------------------------------------------------
    
       
    F:------------------
    C:------------------
    G:------------------
    C:-7-7-7-7--7-7--5--
    
    F:---------------------------------------------------
    C:---------------------------------------------------
    G:---------------------------------------------------
    C:-3--3-3-3--3-5-7-7-3-2--2-2-2-2-0-3-5-3-3--5////---
    
       
    F:---------------------------------------------------
    C:---------------------------------------------------
    G:---------------------------------------------------
    C:-0--0-0-0--0---------------------------------------
    
    F:----------------------------------------------------------------
    C:---------7-7/9--9-9-----------5-5/7-5-5-------------3/10-10-8---
    G:-/5--5-5------------5--3--3-3-----------3--1--1-1--1------------
    C:--------------------------------------------------------------8-
    
    
    F:---------------------------------------------------
    C:---------------------------------------------------
    G:---------------------------------------------------
    C:-7-7-7-7--7-7--5-----------------------------------
    
    
    F:--------------------------------------------------------------
    C:--------------------------------------------------------------
    G:--------------------------------------------------------------
    C:-3--3-3-3--3/7-7-7-5-2--2-2-2-2-0-3-5-3-3--5////-0--0-0-0-0-0-
    
           CHORUS
    F:---------------------------------------------------
    C:---------------------------------------------------
    G:-----------------------------------1-1-1-1-0-0-0-0-
    C:-0-3-0--0-3-0-3-0--0-3-0-3-0-0-3-0-----------------
    
    F:-----------------------------------10-10-10-10-10-10-10-10
    C:------------------------------------x--x--x--x--x--x--x--x
    G:------------------------------------8--8--8--8--8--8--8--8
    C:-0-3-0--0-3-0-3-0--0-3-0-3-0-3-3-0-----------------------
                                          *  *  *  *  *  *  *  *
    
    F:---------------------------------------------------
    C:---------------------------------------------------
    G:-----------------------------------1-1-1-1-0-0-0-0-
    C:-0-3-0--0-3-0-3-0--0-3-0-3-0-0-3-0-----------------
    
    F:-------------------------------------------------------
    C:-----------------3-3-3-3-3-----------------------------
    G:--------------------------------------------3-3--------
    C:-3-3-3---3-3-3-3-----------3-3-3-3--3-3-3-3-----2-2--2-
    
    
    F:---------------------------------------------------
    C:---------------------------------------------------
    G:-----------------------------------1-1-1-1-0-0-0-0-
    C:-0-3-0--0-3-0-3-0--0-3-0-3-0-0-3-0-----------------
    
    F:-----------------------------------10-10-10-10-10-10-10-10
    C:------------------------------------x--x--x--x--x--x--x--x
    G:------------------------------------8--8--8--8--8--8--8--8
    C:-0-3-0--0-3-0-3-0--0-3-0-3-0-3-3-0-----------------------
                                          *  *  *  *  *  *  *  *
    
    F:---------------------------------------------------
    C:---------------------------------------------------
    G:-----------------------------------1-1-1-1-0-0-0-0-
    C:-0-3-0--0-3-0-3-0--0-3-0-3-0-0-3-0-----------------
    
    F:-------------------------------------------------------
    C:-----------------3-3-3-3-3-----------------------------
    G:--------------------------------------------3-3--------
    C:-3-3-3---3-3-3-3-----------3-3-3-3--3-3-3-3-----2-2--2-
    
    F:------------------------
    G:------------------------
    G:------------------------
    C:-0-3-0---0-3-0-3-0------
    
    
    VERSE II
    
    F:---------------()----7---7----------------()---5---
    C:---------------()-/7---7------------------()-5---5-
    G:-5--5-5-5-5--5-()-----------3--3-3-3-3--3 ()-------
    C:---------------()-------------------------()-------
                                 (just this part is in 4/8}  
    F:---------------()-----3---{--------------------------}
    C:---------------()-/3---3--{--------------------------}
    G:-1--1-1-1-1--1-()---------{--------------------------}
    C:--------------------------{-----7--7-7-7-7--5/-------}
    
    F:-------------------------------------()---7/9---------
    C:-------------------------------------()/7-------------
    G:-----------------------------------5-()---------------
    C:-3--3-3-3--3///7-5-3-2--0--0-0-0-0---()---------------
    
    F:--------------()---5/7--------------[]-----------------
    C:--------------()/5-----1--1-1-1-1--1[]----------------
    G:-3--3-3-3-3-3-()--------------------[]---1------------
    C:--------------()--------------------[]-0---0----------
    
         
    F:-------------------
    C:-------------------
    G:-------------------
    C:-7--7-7-7-7--5/----
                                                 
    F:----------------------------------------{-------------}
    C:----------------------------------------{-------------}
    G:----------------------------------------{-------------}
    C:-3-33-3-3-5-5-7-5///-2--2-2-2-2-5-5-3-3-{-0-0-0-0-----}
    
    F:-------------------------------------------------------
    C:-------------------------------------------------------
    G:-5--5-5--5--5--7--7--3--1-1-1-1--3-3-/5-1--------------
    C:-------------------------------------------------------
    
                   
    F:--------------------
    C:--------------------
    G:--------------------
    C:-7--7-7-7-7--5------
    
    F:-----------------------------------
    C:-----------------------------------
    G:-----------------------------------
    C:-3-3-3-3-5-5-7-3-2-2-2-0-2-2-2-2-2/
    
         
    F:----------
    C:----------
    G:--5--5----
    C:-0-----0--
    
    F:-------------7----/9---------5---7----------3------5-3-
    C:-----------7----7----------5---5----------3----3-3-----
    G:--5--5-5-5----------5-3-3-3-------3--1-1-1-------------
    C:-------------------------------------------------------
    
                   
    F:--------------------
    C:--------------------
    G:--------------------
    C:-7--7-7-7-7--5//----
    
    F:---------------------------------------------
    C:--------3-----/5-----------------------------
    G:-------3---3-3-------------------------------
    C:-3--3-3---------3--2--2-2-2-0-2-5--0-5-3-5/--
    
        (2/4 only)
    F:{-------------}----
    C:{-------------}----
    G:{-------------}----
    C:{-0--0-0--0-0-}-0--
    
    F:--------------------------
    C:--------------------------
    G:--------------------------
    C:-0-3-0--0-3-0-3-0--0-0-0-0
    
    Bridge
    
    
    F:---------------------------------------------------------------
    C:-10/9-9-9-9-9-9-9-9-9-9-9-9-9-9--3-3-3-3-3-3-3-3-3-3-3-3-3-3-3-
    G:---------------------------------------------------------------
    C:---------------------------------------------------------------
    
    
    F:-------------------------------
    C:-------------------------------
    G:-------------------------------
    C:-3-2-0-2-0-0-3-2-0-2-0-0-3-2-0-
    
    
    F:---------------------------------------------------------------
    C:-10/9-9-9-9-9-9-9-9-9-9-9-9-9-9--3-3-3-3-3-3-3-3-3-3-3-3-3-3-3-
    G:---------------------------------------------------------------
    C:---------------------------------------------------------------
    
    
    
    F:---------------------------------------------------------------
    C:-10/9-9-9-9-9-9-9-9-9-9-9-9-9-9--3-3-3-3-3-3-3-3-3-3-3-3-3-3-3-
    G:---------------------------------------------------------------
    C:---------------------------------------------------------------
    
    
    F:-17-17-17-17-17-17-17-17-------------------
    C:-16-16-16-16-16-16-16-16-------------------
    G:-15-15-15-15-15-15-15-15-------------------
    C:-------------------------0--0--6-0--0--6-
        *  *  *  *  *  *  *  *
    
    F:-17-17-17-17-17-17-17-17-------------------
    C:-16-16-16-16-16-16-16-16-------------------
    G:-15-15-15-15-15-15-15-15-------------------
    C:-------------------------0--0--6-0--0--6-
       *  *  *  *  *  *  *  *
    
    F:-17-17-17-17-[]--------------------------
    C:-16-16-16-16-[]--------------------------
    G:-15-15-15-15-[]--------------------------
    C:-------------[]--14---0--0--6-0--0--6-
       *  *  *  *
    
    F:-17-17-17-17-17-17-17-17-------------------
    C:-16-16-16-16-16-16-16-16-------------------
    G:-15-15-15-15-15-15-15-15-------------------
    C:-------------------------0--0--6-0--0--6-
       *  *  *  *  *  *  *  *
    
    F:-17-17-17-17-17-17-17-17-------------------
    C:-16-16-16-16-16-16-16-16-------------------
    G:-15-15-15-15-15-15-15-15-------------------
    C:-------------------------0--0--6-0--0--6-
       *  *  *  *  *  *  *  *
    
    F:-17-17-17-17-17-17-17-17-------------------
    C:-16-16-16-16-16-16-16-16-------------------
    G:-15-15-15-15-15-15-15-15-------------------
    C:-------------------------0--0--6-0--0--6-
       *  *  *  *  *  *  *  *
    
    F:-17-17-17-17-17-17-17-17-------------------
    C:-16-16-16-16-16-16-16-16-------------------
    G:-15-15-15-15-15-15-15-15-------------------
    C:-------------------------------------------
        *  *  *  *  *  *  *  *
                             
    F:-[]-17-17-17-[]-17-17-17-{--17-17--}--
    C:-[]-16-16-16-[]-16-16-16-{--16-16--}--
    G:-[]-15-15-15-[]-15-15-15-{--15-15--}--
    C:-[]----------[]----------{---------}--
          *  *  *      *  *  *     *  *
    AND THE REST IS LIKE THE BEGINING!
    
    HAVE FUN KIDDIES!
     

    Тональность:

    Нет текста!



    Назад
    Рекомендуем посмотреть другие песни исполнителя «Mudvayne»:

    • Комментарии Facebook ()
    • Комментарии ВКонтакте



    Добавить в Избранное Браузера
    Сохранить здесь Очистить


    x

    0


    +
    -

    +
    -

    -

    Авторизация





    Зарегистрироваться

    M

    Дата и время

    • 22:21:17
       

    Социальные ссылки


    Наши приложения

    • Muzbank App Play Market
    • Muzbank Amazon App