MUZBANK



A Most Complete Bank Of Music Information

МУЗЫКАЛЬНО-ИНФОРМАЦИОННЫЙ БАНК

Поиск по сайту







    MMudvayne • Nothing To Gain (аккорды и текст - chords & lyrics)


    136

    Print

    Видео «Nothing To Gain (Mudvayne)»

    Видео клипы к песне подбираются автоматически сайтом youtube. Возможны некоторые несоответствия клипов песне.

    ↑ Спрятать рекламу ↑



    Download



     
    
    
    Tuning:(B,F#,B,E,G#,C#)
    
    CHORUS:
    |-------------------------------------------------------------------|
    |-------------------------------------------------------------------|
    |---------------------7-7-7-7-7-7-----5-5-5-5-5-----5-5-5-5-5-5-5-5-|
    |-2/3-0-0-2-0-0-2-3-6-6-6-6-6-6-6-0-3-3-3-3-3-3-5-3-2-2-2-2-2-2-3-3-|
    |-2/3-0-0-2-0-0-2-3-5-5-5-5-5-5-5-0-3-3-3-3-3-3-5-3-3-3-3-3-3-3-3-3-|
    |-2/3-0-0-2-0-0-2-3-6-6-6-6-6-6-6-0-3-3-3-3-3-3-5-3-2-2-2-2-2-2-3-3-|
    
    INTRO:
    |-----------------|
    |-----------------|
    |-----------------|
    |-7-7-7-7-7-7-7-7-|
    |-5-5-5-5-5-5-5-5-|
    |-----------------|
    
    VERSE: (just dead strings with wah)
    
    VERSE B:
    |-----------------------------------------------|
    |-----------------------------------------------|
    |-----------------------------------------------|
    |-10-10-10-10-10-10--10--10-10-10-11-10-9-9-9-9-|
    |--8--8--8--8--8--8---8---8--8--8--9--8-7-7-7-7-|
    |-----------------------------------------------|
    
    VERSE C:
    |---------------------------------------------------------------|
    |---------------------------------------------------------------|
    |-------------------4--------------------4--------------------4-|
    |-0h2-0-0-0h2-0-0-0-4--0h2-0-0-0h2-0-0-0-4--0h2-0-0-0h2-0-0-0-4-|
    |-0h2-0-0-0h2-0-0-0-2--0h2-0-0-0h2-0-0-0-2--0h2-0-0-0h2-0-0-0-2-|
    |-0h2-0-0-0h2-0-0-0----0h2-0-0-0h2-0-0-0----0h2-0-0-0h2-0-0-0---|
    
    |---------------|
    |---------------|
    |---------------|
    |-0h2-0-0-0h2-0-|
    |-0h2-0-0-0h2-0-|
    |-0h2-0-0-0h2-0-|
    
    BRIDGE:
    |---------------------|
    |---------------------|
    |-10p9------10p9------|
    |------10p9------10p9-|
    |---------------------|
    |---------------------|
    
    INTERLUDE:
    |------------------------------------|
    |------------------------------------|
    |---------------------------7-----10-|
    |-0-0-0-0-0-0--0--0-0-0-0-0-7-0-0-10-|
    |-0-0-0-0-0-0--0--0-0-0-0-0-5-0-0--8-|
    |-0-0-0-0-0-0--0--0-0-0-0-0---0-0----|
     

    Тональность:

    Нет текста!



    Назад
    Рекомендуем посмотреть другие песни исполнителя «Mudvayne»:

    • Комментарии Facebook ()
    • Комментарии ВКонтакте



    Добавить в Избранное Браузера
    Сохранить здесь Очистить


    x

    0


    +
    -

    +
    -

    -

    Авторизация





    Зарегистрироваться

    M

    Дата и время

    • 13:19:56
       

    Социальные ссылки


    Наши приложения

    • Muzbank App Play Market
    • Muzbank Amazon App