MUZBANK



A Most Complete Bank Of Music Information

МУЗЫКАЛЬНО-ИНФОРМАЦИОННЫЙ БАНК

Поиск по сайту







    MMudvayne • Nothing To Gein (аккорды и текст - chords & lyrics)


    295

    Print

    Видео «Nothing To Gein (Mudvayne)»

    Видео клипы к песне подбираются автоматически сайтом youtube. Возможны некоторые несоответствия клипов песне.

    ↑ Спрятать рекламу ↑



    Download



     
    
    
    Artist: Mudvayne
    Song: Nothing to gein
    Album: L.D.50 (2000)
    Tabbed by: C. Merten & Jan Haverkamp (Bonn/Germany)      
    Mail: janbass@web.de
    
    / = slide up
    h = hammer on
    p = pull off
    
    S = Slap
    P = Pop
    X = dead note
    
    A = 10
    B = 11
    .
    .
    .
    
    
    intro (0:17):
       G -------------------------------------------------------------
    4  D -------------------------------------------------------2-----
    -  A -------------------------------------------7-----------------
    4  E -------------------------------------7-5-----5---0-3------3--
       B -0-----/6------3------2------0---4/7-------------------------
    
    G -----------------------------------------------------------
    D -----------------------------------------------------------
    A ---------------1--------------7---------4-5---4-4-5-7------
    E -0-2---3-2--------------7-5-----5---7-7--------------------
    B -----------3-2--0---4/7------------------------------------
                                                               
    
    heavy part (0:43):
       G -----------------------------------------------------------------
    4  D -----------------------------------------------------------------
    -  A ---------------------------------------5-5---------------4h5-5---
    4  E -----------------------------------------------------------------
       B -3-0-0-2-0-0-2-3/6-6-6-6-6-6-6-6-3-3-3-----3-5-3-2-2-2-2---------
    
    G -------------------------------------------------------4---------
    D ---------------------------------------6-------------3---3-------
    A -------------------------------------5-----5-------4-------4-----
    E ---------------------------------------------4-------------------
    B -3-0-0-2-0-0-2-3/6-6-6-6-6-6-6-6-3-3-----------3-2-----------2-0-
    
    G -----------------------------------------------------------------
    D -----------------------------------------------------------------
    A ---------------------------------------5-5-5h7p5-4p5-4p5-4p5-4p5-
    E -----------------------------------------------------------------
    B -3-0-0-2-0-0-2-3/6-6-6-6-6-6-6-6-3-3-3---------------------------
    
    
    4x funk part (1:09): 
       G -----------------------------------------------------------------
    9  D ------------6-----------------------------------6----------------
    -  A -----5--5h7----------------------8-------5--5h7----------------8-
    8  E -5h7-----------------------5---7---7-5h7--------------7--0h5h7---
       B ---------------0--0--0-4/7---7--------------------4/7------------
    
    G -----------D-------
    D -------6-----------
    A -----------B-------
    E -0h5h7---7-------7-
    B -------------0-7---
    
    
    break (1:47)
       G --------------D---------------D---------------D------------------
    4  D -----------------------------------------------------------------
    -  A --------------B---------------B---------------B------------------
    4  E -----------------------------------------------------------------
       B 0-0-0-2-0-0-0---0-0-0-2-0-0-0---0-0-0-2-0-0-0---0-0-0-2-0--------
         S S S S S S S P ...
    
    
    1x funk part (2:06)
    
    1x break (2:15)
    
    
    heavy part - variation A (2:24):
       G -----------------------------------------------------------------
    4  D -----------------------------------------------------------------
    -  A ---------------------------------------5-5---------------4h5-5---
    4  E -----------------------------------------------------------------
       B -3-0-0-2-0-0-2-3/6-6-6-6-6-6-6-6-3-3-3-----3-5-3-2-2-2-2---------
    
    G -------------------------------------------------------4---------
    D ---------------------------------------6-------------3-----3-----
    A -------------------------------------5-----5---------------------
    E ---------------------------------------------4-------------------
    B -3-0-0-2-0-0-2-3/6-6-6-6-6-6-6-6-3-3-----------3-2-2---------2-0-
    
    G -----------------------------------------------------------------
    D -----------------------------------------------------------------
    A ---------------------------------------5-5---------------4h5-5---
    E -----------------------------------------------------------------
    B -3-0-0-2-0-0-2-3/6-6-6-6-6-6-6-6-3-3-3-----3-5-3-2-2-2-2---------
    
    G -------------------------------------------------------4---------
    D ---------------------------------------6-------------3---3-------
    A -------------------------------------5-----5-------4-------4-----
    E ---------------------------------------------4-------------------
    B -3-0-0-2-0-0-2-3/6-6-6-6-6-6-6-6-3-3-----------3-2-----------2-0-
    
    
    bridge (2:58):
       G ---------------------------------
    9  D ---------------------------------
    -  A ---------------------------------
    8  E ---------------------------------
       B -0----0----0----0----0----0----0-
          S    S    S    S    S    S    S 
    
    
    4x terror I (3:08) 
       G ---------------------------------4------7--
    9  D -------------------------------------------
    -  A -------------------------------------------
    8  E ---------------------------0h5h7X---7------
       B -0-0-0-0-0-0---0---0-0-0-0------------5----
          S S S S S S   S   S S S S S    SP  S S P
    
    
    terror II (3:27) 
       G ----------------------------4---------5---7-----------------
    5  D ----------------------------------3-------------------------
    -  A ---2-----2-----2-----2-0h2X---------3---5-----2-----2-----2-
    4  E ------------------------------------------------------------
       B -0---0-0---0-0---0-0----------2-0-----------0---0-0---0-0---
          S P S S P S S P S S P S  S P S S P S P S P S P S S P S S P
    
    G ---------4---------5---7-
    D ---------------3---------
    A -------2---3-3---3---5---
    E -------------------------
    B -0-0-0-------------------
       S S S S P S S P S P S P
    
    
    4x terror I (3:38) 
    
    
    heavy part - variation B (3:57):
       G -----------------------------------------------------------------
    4  D -----------------------------------------------------------------
    -  A ---------------------------------------5-5---------------4h5-5---
    4  E -----------------------------------------------------------------
       B -3-0-0-2-0-0-2-3/6-6-6-6-6-6-6-6-3-3-3-----3-5-3-2-2-2-2---------
    
    G -------------------------------------------------------4---------
    D ---------------------------------------6-------------3---3-------
    A -------------------------------------5-----5-------4-------4-----
    E ---------------------------------------------4-------------------
    B -3-0-0-2-0-0-2-3/6-6-6-6-6-6-6-6-3-3-----------3-2-----------2-0-
    
    G -------------------------------------------------------------------
    D -------------------------------------------------------------------
    A ---------------------------------------5-5-------------------------
    E ---------------------------------------------------------4h5-5-----
    B -3-0-0-2-0-0-2-3/6-6-6-6-6-6-6-6-3-3-3-----3-5-3-2-2-2-2-------0---
        								(fade)
    
    Extro = short Intro (4:57)
    
       G -----------------------------------------------------------------
    4  D ---------------------------2-------------------------------------
    -  A ---------------7-------------------------------1---------------7-
    4  E ---------7-5-----5---0-3------3--0-2---3-2---------------7-5-----
       B -0---4/7-----------------------------------3-2---0---4/7---------
    
    G ----------------------------I
    D ----------------------------I
    A ---------4-5---4-4-5-7------I
    E -5---7-7--------------------I
    B ----------------------------I
                          (fade)
    
    Note: Of course it 

    Тональность:

    Нет текста!



    Назад
    Рекомендуем посмотреть другие песни исполнителя «Mudvayne»:

    • Комментарии Facebook ()
    • Комментарии ВКонтакте



    Добавить в Избранное Браузера
    Сохранить здесь Очистить


    x

    0


    +
    -

    +
    -

    -

    Авторизация





    Зарегистрироваться

    M

    Дата и время

    • 23:43:55
       

    Социальные ссылки


    Наши приложения

    • Muzbank App Play Market
    • Muzbank Amazon App