MUZBANK



A Most Complete Bank Of Music Information

МУЗЫКАЛЬНО-ИНФОРМАЦИОННЫЙ БАНК

Поиск по сайту







    MMudvayne • Nothing To Gein (аккорды и текст - chords & lyrics)


    171

    Print

    Видео «Nothing To Gein (Mudvayne)»

    Видео клипы к песне подбираются автоматически сайтом youtube. Возможны некоторые несоответствия клипов песне.

    ↑ Спрятать рекламу ↑



    Download



     
    
    
    MuDvAyNe-Nothing To Gein
    
    Tuning: Drop D, Down 1 1/2 Steps (B,F#,B,E,G#,C#)
    
    CHORUS:
    |-------------------------------------------------------------------|
    |-------------------------------------------------------------------|
    |-------------------------------------------------------------------|
    |-0h2-0-0-2-0-0-2-3-6-6-6-6-6-6-6-0-3-3-3-3-3-3-5-3-2-2-2-2-2-2-2-2-|
    |-0h2-0-0-2-0-0-2-3-6-6-6-6-6-6-6-0-3-3-3-3-3-3-5-3-2-2-2-2-2-2-2-2-|
    |-0h2-0-0-2-0-0-2-3-6-6-6-6-6-6-6-0-3-3-3-3-3-3-5-3-2-2-2-2-2-2-2-2-|
    
    INTRO:
    |-----------------|
    |-----------------|
    |-----------------|
    |-7-7-7-7-7-7-7-7-|
    |-5-5-5-5-5-5-5-5-|
    |-----------------|
    
    VERSE: (palm mute w/ effect) (not positive about this part)
    |---------------------------------|
    |---------------------------------|
    |---------------------------------|
    |---------------------------------|
    |-2-2-0-0-2-2-0-0-2-2-0-0-2-2-0-0-|
    |---------------------------------|
    
    VERSE B:
    |-----------------------------------------------|
    |-----------------------------------------------|
    |-----------------------------------------------|
    |-10-10-10-10-10-10--10--10-10-10-11-10-9-9-9-9-|
    |--8--8--8--8--8--8---8---8--8--8--9--8-7-7-7-7-|
    |-----------------------------------------------|
    
    VERSE C:
    |---------------------------------------------------------------|
    |---------------------------------------------------------------|
    |-------------------4--------------------4--------------------4-|
    |-0h2-0-0-0h2-0-0-0-4--0h2-0-0-0h2-0-0-0-4--0h2-0-0-0h2-0-0-0-4-|
    |-0h2-0-0-0h2-0-0-0-2--0h2-0-0-0h2-0-0-0-2--0h2-0-0-0h2-0-0-0-2-|
    |-0h2-0-0-0h2-0-0-0----0h2-0-0-0h2-0-0-0----0h2-0-0-0h2-0-0-0---|
    
    |---------------|
    |---------------|
    |---------------|
    |-0h2-0-0-0h2-0-|
    |-0h2-0-0-0h2-0-|
    |-0h2-0-0-0h2-0-|
    
    BRIDGE:
    |--------------------------|
    |--------------------------|
    |--------------------------|
    |-15p14--------15p14-------|
    |-------15p14--------15p14-|
    |--------------------------|
    
    INTERLUDE:
    |------------------------------------|
    |------------------------------------|
    |---------------------------7-----10-|
    |-0-0-0-0-0-0--0--0-0-0-0-0-7-0-0-10-|
    |-0-0-0-0-0-0--0--0-0-0-0-0-5-0-0--8-|
    |-0-0-0-0-0-0--0--0-0-0-0-0---0-0----|
     

    Тональность:

    Нет текста!



    Назад
    Рекомендуем посмотреть другие песни исполнителя «Mudvayne»:

    • Комментарии Facebook ()
    • Комментарии ВКонтакте



    Добавить в Избранное Браузера
    Сохранить здесь Очистить


    x

    0


    +
    -

    +
    -

    -

    Авторизация





    Зарегистрироваться

    M

    Дата и время

    • 19:28:10
       

    Социальные ссылки


    Наши приложения

    • Muzbank App Play Market
    • Muzbank Amazon App