MUZBANK



A Most Complete Bank Of Music Information

МУЗЫКАЛЬНО-ИНФОРМАЦИОННЫЙ БАНК

Поиск по сайту







    ММумий Тролль • Карнавала.нет (аккорды и текст - chords & lyrics)


    575

    Print

    Видео «Карнавала.нет (Мумий Тролль)»

    Видео клипы к песне подбираются автоматически сайтом youtube. Возможны некоторые несоответствия клипов песне.

    ↑ Спрятать рекламу ↑



    Download


    Intro guitar (play 4 times)
    
    medium distortion
    4|---------4----------4----------4----------4------------------|
    5|---------4----------4----------4----------4------------------|
    6|-0--2-2--2--0--2-2--2--0--2-2--2--0--2-2--2------------------|
    
    Bass (after 2-nd time of Intro)
    
    4|-0--2-2-----0--2-2-----0--2-2-----0--2-2---------------------|
    
    Main guitar theme
    (something like this)
    dist.
        F#m               A             E                 E
    1|-------------------------0--------------0---------------0----|
    2|---------2--2--1-------2---2----------0---0-----------0---0--|
    3|-----2---2--2--2-----2-------2------1-------1-------1--------|
    4|--4----------------2--------------2---------------2----------|
    
    Main bass
    4|-0-2-2-0-2-2-0-5-5-4-5-5--4--0-0--0--0-0--0--0-0--0--0-0-----|
    
    Rhythm
    
       F#m           A             E               E
    4|-4-4-4-4-4-4-4-7-7-7-7-7-7-7-2-2-2-2-2-2-2-2-2-2-2-2-2-2-2-2-|
    5|-4-4-4-4-4-4-4-7-7-7-7-7-7-7-2-2-2-2-2-2-2-2-2-2-2-2-2-2-2-2-|
    6|-2-2-2-2-2-2-2-5-5-5-5-5-5-5-0-0-0-0-0-0-0-0-0-0-0-0-0-0-0-0-|
    
         F#m                 A
    Карнавала не будет, всё утонет в слезах
        E
    Я моторы гондолы разбираю на части.
         F#m                   A
    Подметаешь лепестки усохшихся площадях
              E
    Пытаешь гладить наощупь ошарашеный страсти.
         D                   F#m
    Карнавала не будет. Карнавала нет!
         D                  E
    Карнавала не будет.Карнавала нет!
      F#m           C#m
    Часы опоздали, мы опоздали
        A                 H
    Ручьями на даче за встречу рыдали
      F#m             C#m
    Тушили камин, замеряли перо.
      A                H
    Наверное, это, когда повезло.
            D                  F#m
    Но карнавала не будет.Карнавала нет.
            D                  E
    Но карнавала не будет.Карнавала нет!
    
    Тебя повезла продираясь без сна
    Смог пиво начать пить после вина
    К последнему танцу красотки все злы
    Мне откололся на пару лишь осколок Луны.
    
    Но карнавала не будет
    Карнавала нет!
    Но карнавала не будет
    Карнавала нет!
    
    Часы опоздали, мы опоздали
    Ручьями на даче за встречу рыдали
    Тушили камин, замеряли перо.
    

    Тональность:

    Нет текста!



    Назад
    Рекомендуем посмотреть другие песни исполнителя «Мумий Тролль»:

    • Комментарии Facebook ()
    • Комментарии ВКонтакте



    Добавить в Избранное Браузера
    Сохранить здесь Очистить


    x

    0


    +
    -

    +
    -

    -

    Авторизация





    Зарегистрироваться

    M

    Дата и время

    • 19:23:20
       

    Социальные ссылки


    Наши приложения

    • Muzbank App Play Market
    • Muzbank Amazon App