MUZBANK



A Most Complete Bank Of Music Information

МУЗЫКАЛЬНО-ИНФОРМАЦИОННЫЙ БАНК

Поиск по сайту







    MMurderdolls • Kill Miss America (аккорды и текст - chords & lyrics)


    279

    Print

    Видео «Kill Miss America (Murderdolls)»

    Видео клипы к песне подбираются автоматически сайтом youtube. Возможны некоторые несоответствия клипов песне.

    ↑ Спрятать рекламу ↑



    Download



     
    
    
    -----------------------------------------------------------------------------
                           Murderdolls - Kill Miss America
    -----------------------------------------------------------------------------
                             Submitted By: Thienskater
                           
                           Standard Tuning: E A D G B e
    
    
    Intro:
    e|-----------------------------|
    B|-----------------------------|
    G|----6/7-7-8/9-8/9------------|
    D|--5-6/7-7-8/9-8/9------------| x2
    A|--5-4/5-7-6/7-6/7------------|
    E|--3-----5--------------------|
    
    Verse:
    e|-----------------------------|
    B|-----------------------------|
    G|-----------7777--------------|           
    D|--77777777-7777-9999---------| x2
    A|--77777777-5555-9999---------|
    E|--55555555------7777---------|
    
    e|-----------------------------|
    B|-----------------------------|
    G|-----------------------------|
    D|--2222-5555-7-5-7-5-7-5-7-5--| x2
    A|--2222-5555-7-5-7-5-7-5-7-5--|
    E|--0000-3333-5-3-5-3-5-3-5-3--|
     

    Тональность:

    Нет текста!



    Назад
    Рекомендуем посмотреть другие песни исполнителя «Murderdolls»:

    • Комментарии Facebook ()
    • Комментарии ВКонтакте



    Добавить в Избранное Браузера
    Сохранить здесь Очистить


    x

    0


    +
    -

    +
    -

    -

    Авторизация





    Зарегистрироваться

    M

    Дата и время

    • 03:18:37
       

    Социальные ссылки


    Наши приложения

    • Muzbank App Play Market
    • Muzbank Amazon App