MUZBANK



A Most Complete Bank Of Music Information

МУЗЫКАЛЬНО-ИНФОРМАЦИОННЫЙ БАНК








    MMurderdolls • Slit My Wrist (аккорды и текст - chords & lyrics)


    174

    Print

    Видео «Slit My Wrist (Murderdolls)»

    Видео клипы к песне подбираются автоматически сайтом youtube. Возможны некоторые несоответствия клипов песне.

    ↑ Спрятать рекламу ↑






     
    
    
    : Slit My Wrist : Murderdolls :
    : Beyond the Valley of the Murderdolls :
    Tuning : Drop D: (D, A, D, G, B, E)
    Tabbed by : MIK MCDADE : MIK_MCDADE@hotmail.com
    
    -------------------
    ||Notes:         ||
    ||* = Harmonic   ||
    -------------------
    
    Intro/Verse:
    
    E |------------------------------------------
    B | -----------------------------------------
    G | -----------------------------------------
    D | --2-2-------2-2-------2-2----2-2----2-5-- (x4)
    A | --2-2-------2-2-------2-2----2-2----2-5--
    D | --2-2-3*-3*-2-2-3*-3*-2-2-3*-2-2-3*-2-5--
    
    Verse (cont.):
    
    E | ----------------------------------------
    B | ----------------------------------------
    G | ----------------------------------------
    D | --2-2-2-2-2-2-2-2-2-2-2-2--5-5-5-5------ (x2)
    A | --2-2-2-2-2-2-2-2-2-2-2-2--5-5-5-5------
    D | --0-0-0-0-0-0-0-0-0-0-0-0--3-3-3-3------
    
    Chorus:
    
    E |--------------------------------------------
    B | -------------------------------------------
    G | -------------------------------------------
    D | --8-2-2-5-5-7--8-2-2-8-8-7--8-2-2-5-5-8-7--
    A | --8-2-2-5-5-7--8-2-2-8-8-7--8-2-2-5-5-8-7--
    D | --8-2-2-5-5-7--8-2-2-8-8-7--8-2-2-5-5-8-7--
    
    During Solo:
    
    E | ------------------------------
    B | ------------------------------
    G | ------------------------------
    D | --2-5-7--2-8-7--2-5-7--2-8-7--
    A | --2-5-7--2-8-7--2-5-7--2-8-7--
    D | --2-5-7--2-8-7--2-5-7--2-8-7--
    
    Bridge:
    
    E | ------------------------------
    B | ------------------------------
    G | ------------------------------
    D | --2-2-2-2-5-7--2-2-2-2-8-7---- (x2)
    A | --2-2-2-2-5-7--2-2-2-2-8-7----
    D | --0-0-0-0-3-5--0-0-0-0-6-5----
     

    Тональность:

    Нет текста!



    Назад
    Рекомендуем посмотреть другие песни исполнителя «Murderdolls»:

    • Комментарии Facebook ()
    • Комментарии ВКонтакте



    Добавить в Избранное Браузера
    Сохранить здесь Очистить


    x

    0


    +
    -

    +
    -

    -

    Авторизация





    Зарегистрироваться

    M

    Дата и время

    • 22:17:02
       

    Социальные ссылки


    Наши приложения

    • Muzbank App Play Market
    • Muzbank Amazon App