MUZBANK



A Most Complete Bank Of Music Information

МУЗЫКАЛЬНО-ИНФОРМАЦИОННЫЙ БАНК

Поиск по сайту







    MMurderdolls • Welcome To The Strange (аккорды и текст - chords & lyrics)


    225

    Print

    Видео «Welcome To The Strange (Murderdolls)»

    Видео клипы к песне подбираются автоматически сайтом youtube. Возможны некоторые несоответствия клипов песне.

    ↑ Спрятать рекламу ↑



    Download


     
    
    
    Artist: Murderdolls
    Album: Freddy VS Jason Soundtrack
    
    Tabbed By: Ghoulscout 6[sic]6 
    Tuning: DROP D
    
    
           Intro (Used With Distortion And Flanger or Envelope Filter)
    
    E| --------------------------------------------------------
    B| --------------------------------------------------------
    G| --------------------------------------------------------
    D| --------------------------------------------------------
    A| 0-0-0-0-0-0-0-0-2-2-5-5-4-4-4-4-4-4-4-4-4-4-4-4-4-4-4-4-
    D| --------------------------------------------------------
    
           Verse 1(Main Riff)
    
    E| -----------------------------------------------------
    B| -----------------------------------------------------
    G| -----------------------------------------------------
    D| 2-2-2-2-2-2-2-4-4-7-7-6-6-6-6-6-6-6-6-6-6-6-6-6-6-6-6
    A| 2-2-2-2-2-2-2-4-4-7-7-6-6-6-6-6-6-6-6-6-6-6-6-6-6-6-6
    D| 2-2-2-2-2-2-2-4-4-7-7-6-6-6-6-6-6-6-6-6-6-6-6-6-6-6-6
    
    
    Verse 2(Riff 2)  Play this part exactly after the main riff,only once then go on
    playing with Verse 1 but with out this.
    
    E| -------------------------------
    B| -------------------------------
    G| -------------------------------
    D| 7-7-7-7-7-7-7-7-4-4-4-4-4-4-4-4
    A| 7-7-7-7-7-7-7-7-4-4-4-4-4-4-4-4
    D| 7-7-7-7-7-7-7-7-4-4-4-4-4-4-4-4
    
          (Riff 3)
    
    E| -------------------------
    B| -------------------------
    G| -------------------------
    D| 0-0-5-5-0-0-5-5-0-0-5-5-0
    A| -------------------------
    D| ------------------------- 
    
          Solo (Riff 4)
    
    E|----------------------------------------------------
    B|17-17-17-17-17-17-17-17-19-21-21-21-21-21-21-21-----
    G|----------------------------------------------------
    D|----------------------------------------------------
    A|----------------------------------------------------
    D|----------------------------------------------------
    
    By The Way You Really Need To Listen To The Song To Be Able To Understand The
    Ways It Goes, Like Its Kinda All Just Mixed Around Its A Great Song Anyway
    Download Or Buy The CD (not to get confused if you download there 2 versions of
    it one from the drag queens and murderdolls the drag queens version says murderdolls its not)
     

    Тональность:

    Нет текста!



    Назад
    Рекомендуем посмотреть другие песни исполнителя «Murderdolls»:

    • Комментарии Facebook ()
    • Комментарии ВКонтакте



    Добавить в Избранное Браузера
    Сохранить здесь Очистить


    x

    0


    +
    -

    +
    -

    -

    Авторизация





    Зарегистрироваться

    M

    Дата и время

    • 06:56:56
       

    Социальные ссылки


    Наши приложения

    • Muzbank App Play Market
    • Muzbank Amazon App