MUZBANK



A Most Complete Bank Of Music Information

МУЗЫКАЛЬНО-ИНФОРМАЦИОННЫЙ БАНК

Поиск по сайту







    MMuse • Agitated (аккорды и текст - chords & lyrics)


    298

    Print

    Видео «Agitated (Muse)»

    Видео клипы к песне подбираются автоматически сайтом youtube. Возможны некоторые несоответствия клипов песне.

    ↑ Спрятать рекламу ↑



    Download


     
    
    
    MUSE
    AGITATED
    Tabbed by Tom Woollan, Email: Woollan@hotmail.com
    
    Drop D Tuning
    
    Intro/Verse 1:
    
    |---9--9--------------|
    |---10-10-------------|
    |---10-10-------------|
    |---9--9--X-X-X-X-X-X-|
    |---9--9--X-X-X-X-X-X-|
    |---9--9--X-X-X-X-X-X-|
    
    The strumming pattern of the muted notes
    Changes with each playing of Verse 1 so
    Listen for it.
    Slighty mute the chords with the left hand,
    to allow some of the open chord to sound
    through.
    
    Verse 2:
    
    |---9--9-------------------|
    |--10-10-------------------|
    |--10-10-------------------|
    |---9--9-p0/5/6-6-6-7-7p0--|
    |---9--9-p0/5/6-6-6-7-7p0--|
    |---9--9-p0/5/6-6-6-7-7p0--|
    
    If you have two guitarists in your midst,
    you could try playing the verse 1 and verse 3
    simulatiously rather than playing verse 2
    
    Verse 3:
    
    |----------------------|
    |----------------------|
    |----------------------|
    |--0-0-/5/6-6-6-7-7p0--|
    |--0-0-/5/6-6-6-7-7p0--|
    |--0-0-/5/6-6-6-7-7p0--|
    
    Chorus:
    
    |--------------------|
    |--------------------|
    |--------------------|
    |--5----4----3----2--|
    |--5----4----3----2--|
    |--5----4----3----2--|
    
    Outro:
                                    x3              x13
    |---9--9--9--9--9--9--9--9--9--9--|-9--------------|-9----|
    |---10-10-10-10-10-10-10-10-10-10-|-10-------------|-10---|
    |---10-10-10-10-10-10-10-10-10-10-|-10-------------|-10---|
    |---9--9--9--9--9--9--9--9--9--9--|-9-p0-5-0-6-0-7-|-9----|
    |---9--9--9--9--9--9--9--9--9--9--|-9-p0-5-0-6-0-7-|-9----|
    |---9--9--9--9--9--9--9--9--9--9--|-9-p0-5-0-6-0-7-|-9----|
    
    Outro Riff:
    
    |----------------------------|
    |----------------------------|
    |----------------------19-22-|
    |----------------14-16-------|
    |---------11-13--------------|
    |---13-15--------------------|
     

    Тональность:

    Нет текста!



    Назад
    Рекомендуем посмотреть другие песни исполнителя «Muse»:

    • Комментарии Facebook ()
    • Комментарии ВКонтакте



    Добавить в Избранное Браузера
    Сохранить здесь Очистить


    x

    0


    +
    -

    +
    -

    -

    Авторизация





    Зарегистрироваться

    M

    Дата и время

    • 05:26:28
       

    Социальные ссылки


    Наши приложения

    • Muzbank App Play Market
    • Muzbank Amazon App