MUZBANK



A Most Complete Bank Of Music Information

МУЗЫКАЛЬНО-ИНФОРМАЦИОННЫЙ БАНК

Поиск по сайту







    MMuse • Apocalypse Please (аккорды и текст - chords & lyrics)


    556

    Print

    Видео «Apocalypse Please (Muse)»

    Видео клипы к песне подбираются автоматически сайтом youtube. Возможны некоторые несоответствия клипов песне.

    ↑ Спрятать рекламу ↑



    Download


     
    
    
    Standard Tuning
    
     = slide down
    r = let note ring
    + = put your finger on the string to stop the note
    
    
    Verse
    
    G|--------------------------------------------------------------------|
    D|--------------------------------------------------------------------|
    A|----9-9-+-9-+-9-+-9-----------------9-9-+-9-+-9-+-9-----------------|
    E|-14----------------9-9-+-9-+-9-+-9-----------------9-9-+-9-+-9-+-9-|
    
    
    Chorus
    
    G|--------------------------------------------------------------------|
    D|--------------------------------------------------------------------|
    A|----9-(x32)-------------------------11-(x16)--------12-(x16)--------|
    E|-14----------------------------------------------------------------|
    
    G|-----------------------------------------------------------------|
    D|-----------------------------------------------------------------|
    A|-----------------------------------------------------------------|
    E|-9-(x16)---------5-(x16)---------9-(x32)-------------------------|
    
    
    Other bit
    
    G|---------------------------------------------------------|
    D|---------------------------------------------------------|
    A|-------------------------99-99-99-99---------------------|
    E|-99-99-99-99-99-99-99-99-------------1010-1010-1010-1010-|
    
    G|---------------------------------------------------------|
    D|---------------------------------------------------------|
    A|-------------------------99-99-99-99---------------------|
    E|-99-99-99-99-99-99-99-99-------------1010-1010-1010-1010-|
    
    G|-------------------------|
    D|-------------------------|
    A|-------------------------|
    E|-77-77-77-77-88-88-88-88-|
    
    
    Outro
    
    G|-------------------------------------------------|
    D|-------------------------------------------------|
    A|-------------------9r----------------------9r----|
    E|-9r----9r----9r----------10r---7r----9r----------|
    
    Rest
    Verse
    Chorus
    Rest
    Verse
    Chorus
    Other bit
    Rest
    Verse
    Chorus
    Other bit
    Outro
     

    Тональность:

    Нет текста!



    Назад
    Рекомендуем посмотреть другие песни исполнителя «Muse»:

    • Комментарии Facebook ()
    • Комментарии ВКонтакте



    Добавить в Избранное Браузера
    Сохранить здесь Очистить


    x

    0


    +
    -

    +
    -

    -

    Авторизация





    Зарегистрироваться

    M

    Дата и время

    • 00:46:28
       

    Социальные ссылки


    Наши приложения

    • Muzbank App Play Market
    • Muzbank Amazon App