MUZBANK



A Most Complete Bank Of Music Information

МУЗЫКАЛЬНО-ИНФОРМАЦИОННЫЙ БАНК

Поиск по сайту







    MMuse • Cave (аккорды и текст - chords & lyrics)


    202

    Print

    Видео «Cave (Muse)»

    Видео клипы к песне подбираются автоматически сайтом youtube. Возможны некоторые несоответствия клипов песне.

    ↑ Спрятать рекламу ↑



    Download



     
    
    
    Intro:
    ---------------|
    --------5b6r5--|
    7-7-7-7-------7|
    |-6-6-6-6-6---|-6-6-6-6-6---|-6-6-6-6-6---|-6-6-6-6-6---|-6-6-6-6-6--------|
    ---------------|
    ---------------|
    
    
    --------------------------|
    5b6r5---5b6r5-----6-------|
    ------7-------7-7---7-----|
    |-6-6-6-6-6---------|-6-6-6-6-6---------|-6-6-6-6-6-------5-7-|
    --------------------------|
    --------------------------|
    
    
    ------------------------------|
    --6---------6---------6-------|
    7---7-----7---7-----7---7-----|
    |-6-6-6-6-6-------5-7-|-6-6-6-6-6-------5-7-|-6-6-6-6-6-------5-7-|
    ------------------------------|
    ------------------------------|
    
    
    ------------------13----------|
    --6------------15----15-------|
    7---7-----|-13-13-13-13-13----------12-14-|
    |-6-6-6-6-6-------5-7---------------------|
    ------------------------------|
    ------------------------------|
    
    
    --------13------------------13----------|
    -----15----15------------------15-------|
    |-13-13-13-13-13----------12-14-|-13-13----13-13----------12-14-|
    --------------------|-------12-------12-------------|
    ----------------------------------------|
    ----------------------------------------|
    
    
    --------13----------|
    -----------15-------|
    |-13-13----13-13----------12-14-|
    |-------12-------12-------------|
    --------------------|
    --------------------|
    
    
    Verse
    
    ---------------------------|
    ---------------------------|
    ---------------------------|
    ---------------------------|
    |-12-----------------------------------|
    |-10-----------------------------------|
    Leave me alone... I 

    Тональность:

    Нет текста!



    Назад
    Рекомендуем посмотреть другие песни исполнителя «Muse»:

    • Комментарии Facebook ()
    • Комментарии ВКонтакте



    Добавить в Избранное Браузера
    Сохранить здесь Очистить


    x

    0


    +
    -

    +
    -

    -

    Авторизация





    Зарегистрироваться

    M

    Дата и время

    • 13:17:36
       

    Социальные ссылки


    Наши приложения

    • Muzbank App Play Market
    • Muzbank Amazon App