MUZBANK



A Most Complete Bank Of Music Information

МУЗЫКАЛЬНО-ИНФОРМАЦИОННЫЙ БАНК

Поиск по сайту







    MMuse • Dead Star (аккорды и текст - chords & lyrics)


    223

    Print

    Видео «Dead Star (Muse)»

    Видео клипы к песне подбираются автоматически сайтом youtube. Возможны некоторые несоответствия клипов песне.

    ↑ Спрятать рекламу ↑



    Download



     
    
    
    Muse-Dead Star
    
    Any comments, questions or queries then mail me at ruled_by_secrecy_6@hotmail.com
    
    Note:This is the live version off Hulabaloo, NOT the single.
    
    Intro
    e|------------|----------------|
    B|------------|-3--------------|
    G|-7----------|-X-(x10)--------|
    D|-X-(x48)----|-0------------0-|
    A|-5----------|---------315/0-|
    D|------------|---------315/0-|
    
    Main Riff
    e|-------------------------------|
    B|-------------------------------|
    G|-------------------------------|
    D|-------------------------------|x4
    A|-5---0--5---0--5---------0-3-4-|
    D|---0-0----0-0----0-5-6-7-0-----|
    
        1/4                                                       1/4
    e|-------------------------------| x3 On the 4th time play |-------------------------------|
    B|-10b---------------------------|                         |-10b---------------------------|
    G|-10b---------------------------|                         |-10b---------------------------|
    D|-------------------------------|                         |-------------------------------|
    A|--------5---0--5---------0-3-4-|                         |--------5---0--5---------0-0-0-|
    D|------0---0-0----0-5-6-7-0-----|                         |------0---0-0----0-5-6-7-0-0-0-|
    
    Verse 1/2
    e|--------------------------------|---------------------------------|
    B|----6-----6-----6-----6-----6---|-6---6-----6-----6-------6-----6-|
    G|-7----7-----7-----7-----7-----7-|---7---7-----7-----7---6---6-----|
    D|-7------7-----7-----7-----7-----|---------7-----7-----7-------7---|
    A|-5------------------------------|---------------------------------|
    D|-0------------------------------|---------------------------------|
    
    e|---------------------------------|---------------------------------|
    B|-----6-------6-------6-------6---|-----6-------6-------6-------6---|
    G|---5---5---5---5---5---5---5---5-|---4---4---4---4---4---4---4---4-|
    D|-7-------7-------7-------7-------|-6-------6-------6-------6-------|
    A|---------------------------------|---------------------------------|
    D|---------------------------------|---------------------------------|
    
    e|-----------------------------0---|---------------------------------|
    B|-----5-------5-------5-----------|-----3-------3-------3-------3---|
    G|---3---3---3---3---3---3-0-3---3-|---2---2---2---2---2---2---2---2-|
    D|-5-------5-------5---------------|-4-------4-------4-------4-------|
    A|---------------------------------|---------------------------------|
    D|---------------------------------|---------------------------------|
    
    e|-1-------------------------1-----|---------------------------------|
    B|-3-----------------------3-----2-|-----3-------3-------3-----------|
    G|-2-----------------------------3-|---2---2---2---2---2---2---2-----|
    D|-3---------------------------3---|-4-------4-------4-------4---0-0-|
    A|---------------------------------|---------------------------------|
    D|---------------------------------|---------------------------------|
    
    e|---------------------------------|---------------------------------|
    B|-----6-------6-------6-------6---|-----8-------8-------8-------8---|
    G|---7---7---7---7---7---7---7---7-|---7---7---7---7---7---7---7---7-|
    D|-7-------7-------7-------7-------|-8-------8-------8-------8-------|
    A|---------------------------------|---------------------------------|
    D|---------------------------------|---------------------------------|
    
    e|---------------------------------|---------------------------------|
    B|-----8-------8-------8-------8---|-----8-------8-------8-------8---|
    G|---7---7---7---7---7---7---7---7-|---7---7---7---7---7---7---7---7-|
    D|-9-------9-------9-------9-------|-8-------8-------8-------8-------|
    A|---------------------------------|---------------------------------|
    D|---------------------------------|---------------------------------|
    
    e|---------------------------------|---------------------------------|
    B|-----8-------8-------8-------8---|-----7-------7-------7-------7---|
    G|---6---6---6---6---6---6---6---6-|---5---5---5---5---5---5---5---5-|
    D|-8-------8-------8-------8-------|-7-------7-------7-------7-------|
    A|---------------------------------|---------------------------------|
    D|---------------------------------|---------------------------------|
    
    e|---------------------------------|-----3--------3-------------------|
    B|-----7-------7-----7-------------|--------------3-------------------|
    G|---5---5---5---5-----5-----------|---3---3---3--3-------------------|
    D|-7-------7-------7-----75-|-5-------5----5-0-0-0-0-0-0-0-0-0-|
    A|---------------------------------|----------------0-0-0-0-0-0-0-0-0-|
    D|---------------------------------|------------------0-0-0-0-0-0-0-0-|
    
    Chorus
    e|-------------------------------|--------------------------------|
    B|-*-----------------------------|--------------------------------|
    G|-101010101010101010101010------|-6--6-6-6-6-6-6-5-5-5-5-5-------|
    D|-8-8-8-8-8-8-8-8-8-8-8-8-0-0-3-|-3--3-3-3-3-3-3-3-3-3-3-3-0-0-0-|
    A|-8-8-8-8-8-8-8-8-8-8-8-8-0-0-3-|-3--3-3-3-3-3-3-3-3-3-3-3-0-0-0-|
    D|-8-8-8-8-8-8-8-8-8-8-8-8-----3-|-3--3-3-3-3-3-3-3-3-3-3-3-------|
    *All 10
    
    e|-------------------------------|--------------------------------|
    B|-------------------------------|--------------------------------|
    G|-6-6-6-6-6-6-6-6-6-6-6-6-6-6-6-|-7-7-7-7-7-7-7------------------|
    D|-7-7-7-7-7-7-7-7-7-7-7-7-7-7-7-|-8-8-8-8-8-8-8------------------|
    A|-7-7-7-7-7-7-7-7-7-7-7-7-7-7-7-|-8-8-8-8-8-8-8------------------|
    D|-7-7-7-7-7-7-7-7-7-7-7-7-7-7-7-|-8-8-8-8-8-8-8-22---|
    
    e|---------------------------------|---------------------------|
    B|-6-6-6-6-6-6-6-6-5-5-5-5-5-------|---------------------------|
    G|-5-5-5-5-5-5-5-5-5-5-5-5-5-------|-6--6--6--6-6-6--6--6--6-6-|
    D|-3-3-3-3-3-3-3-3-3-3-3-3-3-0-0-0-|-7--7--7--7-7-7--7--7--7-7-|
    A|-3-3-3-3-3-3-3-3-3-3-3-3-3-0-0-0-|-7--7--7--7-7-7--7--7--7-7-|
    D|-3-3-3-3-3-3-3-3-3-3-3-3-3-------|-7--7--7--7-7-7--7--7--7-7-|
    
    Play Main riff x4
    
    Verse 2 (same as verse 1)
    
    Chorus (same as first chorus)
    
    Solo
    e|-------------------------------|-----------------------------------|
    B|-------------------------------|------------------0-----0-----0----|
    G|-------------------------------|------------------0-----0-----0----|
    D|-------------------------------|------------------0-----0-----0----|
    A|-5------5------5-----------3-4-|-5-----5-----5---------------------|
    D|---0-0----0-0----0-5-6-7-0-----|---0-0---0-0---0-----0-----0-----0-|
    PM    . .    . .      . . . 
    
    He uses some sort of effect on this part, not to sure which.
    e|----------------------------------------------------------------------------|
    B|----------------------------------------------------------------------------|
    G|----------------------------------------------------------------------------|
    D|-12-0-12-0-12-0-12-0-12-0-12-0-12-0-12-0-12-0-12-0-12-0-12-0-12-0-12-0-12-0-|
    A|----------------------------------------------------------------------------|
    D|----------------------------------------------------------------------------|
    
    e|----------------------------------------------------------------------------|
    B|----------------------------------------------------------------------------|
    G|----------------------------------------------------------------------------|
    D|-13-0-13-0-13-0-13-0-13-0-13-0-13-0-13-0-13-0-13-0-13-0-13-0-13-0-13-0-13-0-|
    A|----------------------------------------------------------------------------|
    D|----------------------------------------------------------------------------|
    
    e|----------------------------------------------------------------------------|
    B|----------------------------------------------------------------------------|
    G|----------------------------------------------------------------------------|
    D|-14-0-14-0-14-0-14-0-14-0-14-0-14-0-14-0-14-0-14-0-14-0-14-0-14-0-14-0-14-0-|
    A|----------------------------------------------------------------------------|
    D|----------------------------------------------------------------------------|
    
    e|----------------------------------------------------------------------------|
    B|----------------------------------------------------------------------------|
    G|----------------------------------------------------------------------------|
    D|-15-0-15-0-15-0-15-0-15-0-15-0-15-0-15-0-15-0-15-0-15---0---0---0---0---0---|
    A|--------------------------------------------------------0---0---0---0---0---|
    D|--------------------------------------------------------0---0---0---0---0---|
    
    Outro
    e|-------------------------------|
    B|-------------------------------|
    G|-------------------------------|
    D|-------------------------------|
    A|-5------5------5---------0-3-4-|
    D|---0-0----0-0----0-5-6-7-0-----|
    
                                      1/4
    e|------------------------------|------------------------------|
    B|--------------------------10--|-10b--------------------------|
    G|--------------------------10--|-10b--------------------------|
    D|------------------------------|------------------------------|
    A|-5------5------5-------0------|-------5---0--5---------0-3-4-|
    D|---0-0----0-0----0-5-6--------|-----0---0-0----0-5-6-7-0-----|
    
       1/4                             1/4
    e|-------------------------------|-------------------------------|
    B|-10b---------------------------|-10b---------------------------|
    G|-10b---------------------------|-10b---------------------------|
    D|-------------------------------|-------------------------------|
    A|--------5---0--5---------0-3-4-|--------5---0--5---------0-3-4-|
    D|------0---0-0----0-5-6-7-0-----|------0---0-0----0-5-6-7-0-----|
    
       1/4
    e|------------------------------|---------------------------------|
    B|-5b---------------------------|-12--12---12---------------------|
    G|-5b---------------------------|-11--11---11---------------------|
    D|------------------------------|-11--11---11---------------------|
    A|-------5------5---0-0-0-0-0-0-|-----------------5---------0-3-4-|
    D|-----0---0-0----0-0-0-0-0-0-0-|--------0----0-0---0-5-6-7-0-----|
    
    e|---------------------------------|---------|--------------------|
    B|---------------------------------|---------|--------------------|
    G|----------7-7-7------------------|---------|--------------------|
    D|----------X-X-X------------------|-0-------|--------------------|
    A|-5--------5-5-5--5---------0-3-4-|-0-------|--------------------|
    D|---0-0--0----------0-5-6-7-0-----|-0-------|-10-|
     

    Тональность:

    Нет текста!



    Назад
    Рекомендуем посмотреть другие песни исполнителя «Muse»:

    • Комментарии Facebook ()
    • Комментарии ВКонтакте



    Добавить в Избранное Браузера
    Сохранить здесь Очистить


    x

    0


    +
    -

    +
    -

    -

    Авторизация





    Зарегистрироваться

    M

    Дата и время

    • 17:10:00
       

    Социальные ссылки


    Наши приложения

    • Muzbank App Play Market
    • Muzbank Amazon App