MUZBANK



A Most Complete Bank Of Music Information

МУЗЫКАЛЬНО-ИНФОРМАЦИОННЫЙ БАНК

Поиск по сайту







    MMuse • Muscle Museum (аккорды и текст - chords & lyrics)


    224

    Print

    Видео «Muscle Museum (Muse)»

    Видео клипы к песне подбираются автоматически сайтом youtube. Возможны некоторые несоответствия клипов песне.

    ↑ Спрятать рекламу ↑



    Download



     
    
    
    Album: Showbiz
    
    ------------------------------------------------------------------------------
    -10-10-10-10-10-10-10-10--14-14-14-12-12-12-10-10-10-10-10-10---9--9--9--9----
    -11-11-11-11-11-11-11-11--11-11-11-11-11-11-11-11-11-11-11-11--10-10-10-10----
    ------------------------------------------------------------------------------
    ------------------------------------------------------------------------------
    ------------------------------------------------------------------------------
                                                                                  
    
    ------------------------------------------------------------------------------
    -12-12-12-10-10-10--9--9--9--9--9--9--10-10-10-10--14-14-14-14-14-14-14-14----
    -10-10-10-10-10-10-10-10-10-10-10-10--11-11-11-11--11-11-11-15-15-15-15-15----
    ------------------------------------------------------------------------------
    ------------------------------------------------------------------------------
    ------------------------------------------------------------------------------
                                                                                  
    
    ------------------------------------------------------------------------------
    -15-15-15-15-15-15-15-15-15---------------------------------------------------
    -16-16-16-16-16-16-16-16-16---------------------------------------------------
    ------------------------------------------------------------------------------
    ------------------------------------------------------------------------------
    ------------------------------------------------------------------------------
    
    ------------------------------------------------------------------------------
    -10-10-10-10-10-10-10-10--14-14-14-12-12-12-10-10-10-10-10-10---9--9--9--9----
    -11-11-11-11-11-11-11-11--11-11-11-11-11-11-11-11-11-11-11-11--10-10-10-10----
    ------------------------------------------------------------------------------
    ------------------------------------------------------------------------------
    ------------------------------------------------------------------------------
                                                                                  
    
    ------------------------------------------------------------------------------
    -12-12-12-10-10-10--9--9--9--9--9--9--10-10-10-10--14-14-14-14-14-14-14-14----
    -10-10-10-10-10-10-10-10-10-10-10-10--11-11-11-11--11-11-11-15-15-15-15-15----
    ------------------------------------------------------------------------------
    ------------------------------------------------------------------------------
    ------------------------------------------------------------------------------
                                                                                  
    
    ------------------------------------------------------------------------------
    -15-15-15-15-15-15-15-15-15---------------------------------------------------
    -16-16-16-16-16-16-16-16-16---------------------------------------------------
    ------------------------------------------------------------------------------
    ------------------------------------------------------------------------------
    ------------------------------------------------------------------------------
    
    
    She had something to confess to
    But you don 

    Тональность:

    Нет текста!



    Назад
    Рекомендуем посмотреть другие песни исполнителя «Muse»:

    • Комментарии Facebook ()
    • Комментарии ВКонтакте



    Добавить в Избранное Браузера
    Сохранить здесь Очистить


    x

    0


    +
    -

    +
    -

    -

    Авторизация





    Зарегистрироваться

    M

    Дата и время

    • 21:13:34
       

    Социальные ссылки


    Наши приложения

    • Muzbank App Play Market
    • Muzbank Amazon App